  0
SECTION
  2
HEADER
  9
$ACADVER
  1
AC1009
  9
$INSBASE
 10
0.0
 20
0.0
 30
0.0
  9
$EXTMIN
 10
-406.80521
 20
-125.69995
 30
0.0
  9
$EXTMAX
 10
406.80521
 20
114.301914
 30
0.0
  9
$LIMMIN
 10
0.0
 20
0.0
  9
$LIMMAX
 10
12.0
 20
9.0
  9
$ORTHOMODE
 70
     0
  9
$REGENMODE
 70
     1
  9
$FILLMODE
 70
     1
  9
$QTEXTMODE
 70
     0
  9
$MIRRTEXT
 70
     1
  9
$DRAGMODE
 70
     2
  9
$LTSCALE
 40
4.0
  9
$OSMODE
 70
     0
  9
$ATTMODE
 70
     1
  9
$TEXTSIZE
 40
0.2
  9
$TRACEWID
 40
0.05
  9
$TEXTSTYLE
  7
STANDARD
  9
$CLAYER
  8
ALL
  9
$CELTYPE
  6
BYLAYER
  9
$CECOLOR
 62
   256
  9
$DIMSCALE
 40
1.0
  9
$DIMASZ
 40
0.18
  9
$DIMEXO
 40
0.0625
  9
$DIMDLI
 40
0.38
  9
$DIMRND
 40
0.0
  9
$DIMDLE
 40
0.0
  9
$DIMEXE
 40
0.18
  9
$DIMTP
 40
0.0
  9
$DIMTM
 40
0.0
  9
$DIMTXT
 40
0.18
  9
$DIMCEN
 40
0.09
  9
$DIMTSZ
 40
0.0
  9
$DIMTOL
 70
     0
  9
$DIMLIM
 70
     0
  9
$DIMTIH
 70
     1
  9
$DIMTOH
 70
     1
  9
$DIMSE1
 70
     0
  9
$DIMSE2
 70
     0
  9
$DIMTAD
 70
     0
  9
$DIMZIN
 70
     0
  9
$DIMBLK
  1

  9
$DIMASO
 70
     1
  9
$DIMSHO
 70
     1
  9
$DIMPOST
  1

  9
$DIMAPOST
  1

  9
$DIMALT
 70
     0
  9
$DIMALTD
 70
     2
  9
$DIMALTF
 40
25.4
  9
$DIMLFAC
 40
1.0
  9
$DIMTOFL
 70
     0
  9
$DIMTVP
 40
0.0
  9
$DIMTIX
 70
     0
  9
$DIMSOXD
 70
     0
  9
$DIMSAH
 70
     0
  9
$DIMBLK1
  1

  9
$DIMBLK2
  1

  9
$DIMSTYLE
  2
*UNNAMED
  9
$DIMCLRD
 70
     0
  9
$DIMCLRE
 70
     0
  9
$DIMCLRT
 70
     0
  9
$DIMTFAC
 40
1.0
  9
$DIMGAP
 40
0.09
  9
$LUNITS
 70
     2
  9
$LUPREC
 70
     4
  9
$SKETCHINC
 40
0.1
  9
$FILLETRAD
 40
0.0
  9
$AUNITS
 70
     0
  9
$AUPREC
 70
     0
  9
$MENU
  1
acad
  9
$ELEVATION
 40
0.0
  9
$PELEVATION
 40
0.0
  9
$THICKNESS
 40
0.0
  9
$LIMCHECK
 70
     0
  9
$BLIPMODE
 70
     1
  9
$CHAMFERA
 40
0.0
  9
$CHAMFERB
 40
0.0
  9
$SKPOLY
 70
     0
  9
$TDCREATE
 40
0.0
  9
$TDUPDATE
 40
2451278.5990625001
  9
$TDINDWG
 40
0.000115740741
  9
$TDUSRTIMER
 40
0.000115740741
  9
$USRTIMER
 70
     1
  9
$ANGBASE
 50
0.0
  9
$ANGDIR
 70
     0
  9
$PDMODE
 70
     0
  9
$PDSIZE
 40
0.0
  9
$PLINEWID
 40
0.0
  9
$COORDS
 70
     1
  9
$SPLFRAME
 70
     0
  9
$SPLINETYPE
 70
     6
  9
$SPLINESEGS
 70
     8
  9
$ATTDIA
 70
     0
  9
$ATTREQ
 70
     1
  9
$HANDLING
 70
     0
  9
$HANDSEED
  5
0
  9
$SURFTAB1
 70
     6
  9
$SURFTAB2
 70
     6
  9
$SURFTYPE
 70
     6
  9
$SURFU
 70
     6
  9
$SURFV
 70
     6
  9
$UCSNAME
  2

  9
$UCSORG
 10
0.0
 20
0.0
 30
0.0
  9
$UCSXDIR
 10
1.0
 20
0.0
 30
0.0
  9
$UCSYDIR
 10
0.0
 20
1.0
 30
0.0
  9
$PUCSNAME
  2

  9
$PUCSORG
 10
0.0
 20
0.0
 30
0.0
  9
$PUCSXDIR
 10
1.0
 20
0.0
 30
0.0
  9
$PUCSYDIR
 10
0.0
 20
1.0
 30
0.0
  9
$USERI1
 70
     0
  9
$USERI2
 70
     0
  9
$USERI3
 70
     0
  9
$USERI4
 70
     0
  9
$USERI5
 70
     0
  9
$USERR1
 40
0.0
  9
$USERR2
 40
0.0
  9
$USERR3
 40
0.0
  9
$USERR4
 40
0.0
  9
$USERR5
 40
0.0
  9
$WORLDVIEW
 70
     1
  9
$SHADEDGE
 70
     3
  9
$SHADEDIF
 70
    70
  9
$TILEMODE
 70
     1
  9
$MAXACTVP
 70
    16
  9
$PINSBASE
 10
0.0
 20
0.0
 30
0.0
  9
$PLIMCHECK
 70
     0
  9
$PEXTMIN
 10
1.000000E+020
 20
1.000000E+020
 30
1.000000E+020
  9
$PEXTMAX
 10
-1.000000E+020
 20
-1.000000E+020
 30
-1.000000E+020
  9
$PLIMMIN
 10
0.0
 20
0.0
  9
$PLIMMAX
 10
12.0
 20
9.0
  9
$UNITMODE
 70
     0
  9
$VISRETAIN
 70
     0
  9
$PLINEGEN
 70
     0
  9
$PSLTSCALE
 70
     1
  9
$TREEDEPTH
 70
  3020
  9
$DWGCODEPAGE
  3
ascii
  0
ENDSEC
  0
SECTION
  2
TABLES
  0
TABLE
  2
VPORT
 70
     1
  0
VPORT
  2
*ACTIVE
 70
     0
 10
0.0
 20
0.0
 11
1.0
 21
1.0
 12
0.814822
 22
0.510503
 13
0.0
 23
0.0
 14
1.0
 24
1.0
 15
0.0
 25
0.0
 16
0.0
 26
0.0
 36
1.0
 17
0.0
 27
0.0
 37
0.0
 40
512.004668
 41
1.62963
 42
50.0
 43
0.0
 44
0.0
 50
0.0
 51
0.0
 71
     0
 72
   100
 73
     1
 74
     0
 75
     0
 76
     0
 77
     0
 78
     0
  0
ENDTAB
  0
TABLE
  2
LTYPE
 70
    10
  0
LTYPE
  2
CONTINUOUS
 70
    64
  3
Solid Line
 72
    65
 73
     0
 40
0.0
  0
LTYPE
  2
MCDASH1
 70
    64
  3
MiniCad+ Generated
 72
    65
 73
     2
 40
2.116537
 49
1.058075
 49
-1.058463
  0
LTYPE
  2
MCDASH2
 70
    64
  3
MiniCad+ Generated
 72
    65
 73
     2
 40
3.527692
 49
2.469229
 49
-1.058463
  0
LTYPE
  2
MCDASH3
 70
    64
  3
MiniCad+ Generated
 72
    65
 73
     2
 40
6.35
 49
5.291537
 49
-1.058463
  0
LTYPE
  2
MCDASH4
 70
    64
  3
MiniCad+ Generated
 72
    65
 73
     2
 40
7.760767
 49
6.702692
 49
-1.058075
  0
LTYPE
  2
MCDASH5
 70
    64
  3
MiniCad+ Generated
 72
    65
 73
     2
 40
1.058075
 49
0.352692
 49
-0.705383
  0
LTYPE
  2
MCDASH6
 70
    64
  3
MiniCad+ Generated
 72
    65
 73
     4
 40
5.291537
 49
3.175
 49
-1.058075
 49
0.352692
 49
-0.705771
  0
LTYPE
  2
MCDASH7
 70
    64
  3
MiniCad+ Generated
 72
    65
 73
     6
 40
9.525
 49
3.175
 49
-1.058075
 49
3.175
 49
-1.058463
 49
0.352692
 49
-0.705771
  0
LTYPE
  2
MCDASH8
 70
    64
  3
MiniCad+ Generated
 72
    65
 73
     6
 40
6.35
 49
3.175
 49
-1.058075
 49
0.352692
 49
-0.705771
 49
0.352692
 49
-0.705771
  0
LTYPE
  2
MCDASH9
 70
    64
  3
MiniCad+ Generated
 72
    65
 73
     4
 40
3.004489
 49
1.752606
 49
-0.500745
 49
0.250372
 49
-0.500745
  0
ENDTAB
  0
TABLE
  2
LAYER
 70
     1
  0
LAYER
  2
ALL
 70
    64
 62
     7
  6
CONTINUOUS
  0
ENDTAB
  0
TABLE
  2
STYLE
 70
     1
  0
STYLE
  2
STANDARD
 70
     0
 40
0.0
 41
1.0
 50
0.0
 71
     0
 42
0.2
  3
txt
  4

  0
ENDTAB
  0
TABLE
  2
VIEW
 70
     0
  0
ENDTAB
  0
TABLE
  2
UCS
 70
     0
  0
ENDTAB
  0
TABLE
  2
APPID
 70
     2
  0
APPID
  2
ACAD
 70
     0
  0
APPID
  2
SOFTSOURCE
 70
     0
  0
ENDTAB
  0
TABLE
  2
DIMSTYLE
 70
     0
  0
ENDTAB
  0
ENDSEC
  0
SECTION
  2
BLOCKS
  0
BLOCK
  8
0
  2
$ARROW1$
 70
     0
 10
0.0
 20
0.0
 30
0.0
  0
POLYLINE
  8
0
 66
     1
 10
0.0
 20
0.0
 30
0.0
 70
     1
  0
VERTEX
  8
0
 10
-25.4
 20
4.318
 30
0.0
  0
VERTEX
  8
0
 10
-25.4
 20
-4.318
 30
0.0
  0
VERTEX
  8
0
 10
0.0
 20
0.0
 30
0.0
  0
SEQEND
  8
0
  0
ENDBLK
  8
0
  0
BLOCK
  8
0
  2
$ARROW2$
 70
     0
 10
0.0
 20
0.0
 30
0.0
  0
POLYLINE
  8
0
 66
     1
 10
0.0
 20
0.0
 30
0.0
 70
     1
  0
VERTEX
  8
0
 10
-25.4
 20
12.7
 30
0.0
  0
VERTEX
  8
0
 10
-25.4
 20
-12.7
 30
0.0
  0
VERTEX
  8
0
 10
0.0
 20
0.0
 30
0.0
  0
SEQEND
  8
0
  0
ENDBLK
  8
0
  0
BLOCK
  8
0
  2
$ARROW3$
 70
     0
 10
0.0
 20
0.0
 30
0.0
  0
POLYLINE
  8
0
 66
     1
 10
0.0
 20
0.0
 30
0.0
 70
     1
 40
0.508
 41
0.508
  0
VERTEX
  8
0
 10
-6.35
 20
0.0
 30
0.0
  0
VERTEX
  8
0
 10
-6.2535
 20
-1.10284
 30
0.0
  0
VERTEX
  8
0
 10
-5.96699
 20
-2.17198
 30
0.0
  0
VERTEX
  8
0
 10
-5.49919
 20
-3.17512
 30
0.0
  0
VERTEX
  8
0
 10
-4.86431
 20
-4.08179
 30
0.0
  0
VERTEX
  8
0
 10
-4.08164
 20
-4.86443
 30
0.0
  0
VERTEX
  8
0
 10
-3.17496
 20
-5.49929
 30
0.0
  0
VERTEX
  8
0
 10
-2.17179
 20
-5.96706
 30
0.0
  0
VERTEX
  8
0
 10
-1.10264
 20
-6.25353
 30
0.0
  0
VERTEX
  8
0
 10
0.0001
 20
-6.35
 30
0.0
  0
VERTEX
  8
0
 10
0.0
 20
-6.35
 30
0.0
  0
VERTEX
  8
0
 10
1.10274
 20
-6.25352
 30
0.0
  0
VERTEX
  8
0
 10
2.17188
 20
-5.96703
 30
0.0
  0
VERTEX
  8
0
 10
3.17504
 20
-5.49924
 30
0.0
  0
VERTEX
  8
0
 10
4.08172
 20
-4.86437
 30
0.0
  0
VERTEX
  8
0
 10
4.86443
 20
-4.08164
 30
0.0
  0
VERTEX
  8
0
 10
5.49929
 20
-3.17496
 30
0.0
  0
VERTEX
  8
0
 10
5.96706
 20
-2.17179
 30
0.0
  0
VERTEX
  8
0
 10
6.25353
 20
-1.10264
 30
0.0
  0
VERTEX
  8
0
 10
6.35
 20
0.0
 30
0.0
  0
VERTEX
  8
0
 10
6.25353
 20
1.10264
 30
0.0
  0
VERTEX
  8
0
 10
5.96703
 20
2.17188
 30
0.0
  0
VERTEX
  8
0
 10
5.49924
 20
3.17504
 30
0.0
  0
VERTEX
  8
0
 10
4.86437
 20
4.08172
 30
0.0
  0
VERTEX
  8
0
 10
4.08172
 20
4.86437
 30
0.0
  0
VERTEX
  8
0
 10
3.17504
 20
5.49924
 30
0.0
  0
VERTEX
  8
0
 10
2.17179
 20
5.96706
 30
0.0
  0
VERTEX
  8
0
 10
1.10264
 20
6.25353
 30
0.0
  0
VERTEX
  8
0
 10
0.0
 20
6.35
 30
0.0
  0
VERTEX
  8
0
 10
-1.10264
 20
6.25353
 30
0.0
  0
VERTEX
  8
0
 10
-2.17188
 20
5.96703
 30
0.0
  0
VERTEX
  8
0
 10
-3.17504
 20
5.49924
 30
0.0
  0
VERTEX
  8
0
 10
-4.08172
 20
4.86437
 30
0.0
  0
VERTEX
  8
0
 10
-4.86437
 20
4.08172
 30
0.0
  0
VERTEX
  8
0
 10
-5.49929
 20
3.17496
 30
0.0
  0
VERTEX
  8
0
 10
-5.96706
 20
2.17179
 30
0.0
  0
VERTEX
  8
0
 10
-6.25353
 20
1.10264
 30
0.0
  0
VERTEX
  8
0
 10
-6.35
 20
0.0
 30
0.0
  0
SEQEND
  8
0
  0
ENDBLK
  8
0
  0
BLOCK
  8
0
  2
$ARROW4$
 70
     0
 10
0.0
 20
0.0
 30
0.0
  0
LINE
  8
0
 10
12.7
 20
12.7
 30
0.0
 11
-12.7
 21
-12.7
 31
0.0
  0
ENDBLK
  8
0
  0
BLOCK
  8
0
  2
$ARROW5$
 70
     0
 10
0.0
 20
0.0
 30
0.0
  0
LINE
  8
0
 10
12.7
 20
12.7
 30
0.0
 11
-12.7
 21
-12.7
 31
0.0
  0
LINE
  8
0
 10
-12.7
 20
12.7
 30
0.0
 11
12.7
 21
-12.7
 31
0.0
  0
ENDBLK
  8
0
  0
ENDSEC
  0
SECTION
  2
ENTITIES
  0
LINE
  8
ALL
 10
346.31139
 20
6.57885
 30
0.0
 11
349.31139
 21
6.57885
 31
0.0
  0
LINE
  8
ALL
 10
346.31139
 20
21.57885
 30
0.0
 11
349.31139
 21
21.57885
 31
0.0
  0
LINE
  8
ALL
 10
339.31139
 20
4.57885
 30
0.0
 11
346.31139
 21
4.57885
 31
0.0
  0
LINE
  8
ALL
 10
339.31139
 20
23.57885
 30
0.0
 11
346.31139
 21
23.57885
 31
0.0
  0
LINE
  8
ALL
 10
324.31139
 20
4.07885
 30
0.0
 11
329.31139
 21
4.07885
 31
0.0
  0
LINE
  8
ALL
 10
324.31139
 20
24.07885
 30
0.0
 11
329.31139
 21
24.07885
 31
0.0
  0
LINE
  8
ALL
 10
329.31139
 20
6.57885
 30
0.0
 11
339.31139
 21
6.57885
 31
0.0
  0
LINE
  8
ALL
 10
329.31139
 20
21.57885
 30
0.0
 11
339.31139
 21
21.57885
 31
0.0
  0
LINE
  8
ALL
 10
329.31139
 20
-22.92115
 30
0.0
 11
339.31139
 21
-22.92115
 31
0.0
  0
LINE
  8
ALL
 10
329.31139
 20
-37.92115
 30
0.0
 11
339.31139
 21
-37.92115
 31
0.0
  0
LINE
  8
ALL
 10
324.31139
 20
-20.42115
 30
0.0
 11
329.31139
 21
-20.42115
 31
0.0
  0
LINE
  8
ALL
 10
324.31139
 20
-40.42115
 30
0.0
 11
329.31139
 21
-40.42115
 31
0.0
  0
LINE
  8
ALL
 10
339.31139
 20
-20.92115
 30
0.0
 11
346.31139
 21
-20.92115
 31
0.0
  0
LINE
  8
ALL
 10
339.31139
 20
-39.92115
 30
0.0
 11
346.31139
 21
-39.92115
 31
0.0
  0
LINE
  8
ALL
 10
346.31139
 20
-22.92115
 30
0.0
 11
349.31139
 21
-22.92115
 31
0.0
  0
LINE
  8
ALL
 10
346.31139
 20
-37.92115
 30
0.0
 11
349.31139
 21
-37.92115
 31
0.0
  0
LINE
  8
ALL
 10
36.31139
 20
56.57885
 30
0.0
 11
-21.68861
 21
56.57885
 31
0.0
  0
LINE
  8
ALL
 10
-21.68861
 20
-80.42115
 30
0.0
 11
140.31139
 21
-80.42115
 31
0.0
  0
LINE
  8
ALL
  6
MCDASH9
 10
186.31139
 20
8.57885
 30
0.0
 11
6.31139
 21
8.57885
 31
0.0
  0
LINE
  8
ALL
 10
27.81139
 20
-10.99375
 30
0.0
 11
27.81139
 21
108.00625
 31
0.0
  0
LINE
  8
ALL
 10
327.31139
 20
62.00625
 30
0.0
 11
327.31139
 21
108.00625
 31
0.0
  0
LINE
  8
ALL
 10
41.81139
 20
64.00625
 30
0.0
 11
41.81139
 21
80.00625
 31
0.0
  0
LINE
  8
ALL
  6
MCDASH9
 10
189.31139
 20
11.57885
 30
0.0
 11
189.31139
 21
82.00625
 31
0.0
  0
LINE
  8
ALL
 10
338.31599
 20
53.57885
 30
0.0
 11
383.54429
 21
53.57885
 31
0.0
  0
LINE
  8
ALL
 10
340.31139
 20
-45.42115
 30
0.0
 11
383.54429
 21
-45.42115
 31
0.0
  0
CIRCLE
  8
ALL
 10
189.31139
 20
8.57885
 30
0.0
 40
12.0
  0
ARC
  8
ALL
 10
189.31139
 20
8.57885
 30
0.0
 40
20.0
 50
219.786789
 51
248.213211
  0
ARC
  8
ALL
 10
189.31139
 20
8.57885
 30
0.0
 40
20.0
 50
291.786789
 51
320.213211
  0
ARC
  8
ALL
 10
189.31139
 20
8.57885
 30
0.0
 40
20.0
 50
3.786789
 51
32.213211
  0
ARC
  8
ALL
 10
189.31139
 20
8.57885
 30
0.0
 40
20.0
 50
75.786789
 51
104.213211
  0
ARC
  8
ALL
 10
215.94099
 20
-0.07365
 30
0.0
 40
12.0
 50
123.786789
 51
200.213211
  0
ARC
  8
ALL
 10
189.31139
 20
-19.42115
 30
0.0
 40
12.0
 50
51.786789
 51
128.213211
  0
ARC
  8
ALL
 10
162.68189
 20
-0.07365
 30
0.0
 40
12.0
 50
339.786789
 51
56.213211
  0
ARC
  8
ALL
 10
172.85349
 20
31.23135
 30
0.0
 40
12.0
 50
267.786789
 51
344.213211
  0
ARC
  8
ALL
 10
205.76939
 20
31.23135
 30
0.0
 40
12.0
 50
195.786789
 51
272.213211
  0
ARC
  8
ALL
 10
189.31139
 20
8.57885
 30
0.0
 40
20.0
 50
147.786789
 51
176.213211
  0
ARC
  8
ALL
 10
181.48299
 20
-78.42115
 30
0.0
 40
2.0
 50
270.0
 51
315.0
  0
ARC
  8
ALL
 10
187.13989
 20
-78.42115
 30
0.0
 40
2.0
 50
90.0
 51
135.0
  0
ARC
  8
ALL
 10
227.48299
 20
-78.42115
 30
0.0
 40
2.0
 50
45.0
 51
90.0
  0
ARC
  8
ALL
 10
233.13989
 20
-78.42115
 30
0.0
 40
2.0
 50
225.0
 51
270.0
  0
LINE
  8
ALL
 10
182.89719
 20
-79.83535
 30
0.0
 11
185.72569
 21
-77.00695
 31
0.0
  0
LINE
  8
ALL
 10
231.72569
 20
-79.83535
 30
0.0
 11
228.89719
 21
-77.00695
 31
0.0
  0
LINE
  8
ALL
 10
227.48299
 20
-76.42115
 30
0.0
 11
187.13989
 21
-76.42115
 31
0.0
  0
LINE
  8
ALL
 10
224.31139
 20
-55.42115
 30
0.0
 11
190.31139
 21
-55.42115
 31
0.0
  0
LINE
  8
ALL
 10
232.31139
 20
-63.42115
 30
0.0
 11
232.31139
 21
-80.42115
 31
0.0
  0
LINE
  8
ALL
 10
182.31139
 20
-63.42115
 30
0.0
 11
182.31139
 21
-80.42115
 31
0.0
  0
ARC
  8
ALL
 10
206.83709
 20
28.57885
 30
0.0
 40
10.0
 50
32.604599
 51
90.0
  0
ARC
  8
ALL
 10
278.31139
 20
-73.88345
 30
0.0
 40
5.0
 50
0.0
 51
32.604599
  0
ARC
  8
ALL
 10
167.09129
 20
33.57885
 30
0.0
 40
5.0
 50
90.0
 51
177.420853
  0
ARC
  8
ALL
 10
166.46069
 20
19.57885
 30
0.0
 40
5.0
 50
177.420853
 51
270.0
  0
ARC
  8
ALL
 10
165.46969
 20
-2.42115
 30
0.0
 40
5.0
 50
90.0
 51
177.420853
  0
LINE
  8
ALL
 10
161.46569
 20
19.80385
 30
0.0
 11
162.09639
 21
33.80385
 31
0.0
  0
LINE
  8
ALL
 10
170.23269
 20
14.57885
 30
0.0
 11
166.46069
 21
14.57885
 31
0.0
  0
LINE
  8
ALL
 10
174.38499
 20
2.57885
 30
0.0
 11
165.46969
 21
2.57885
 31
0.0
  0
LINE
  8
ALL
 10
215.26119
 20
33.96725
 30
0.0
 11
282.52349
 21
-71.18925
 31
0.0
  0
LINE
  8
ALL
 10
157.31139
 20
-72.42115
 30
0.0
 11
160.47469
 21
-2.19615
 31
0.0
  0
LINE
  8
ALL
 10
283.31139
 20
-73.88345
 30
0.0
 11
283.31139
 21
-80.42115
 31
0.0
  0
LINE
  8
ALL
 10
157.31139
 20
-72.42115
 30
0.0
 11
157.31139
 21
-80.42115
 31
0.0
  0
LINE
  8
ALL
 10
206.83709
 20
38.57885
 30
0.0
 11
167.09129
 21
38.57885
 31
0.0
  0
ARC
  8
ALL
 10
190.31139
 20
-63.42115
 30
0.0
 40
8.0
 50
90.0
 51
180.0
  0
ARC
  8
ALL
 10
224.31139
 20
-63.42115
 30
0.0
 40
8.0
 50
0.0
 51
90.0
  0
LINE
  8
ALL
 10
283.31139
 20
-80.42115
 30
0.0
 11
157.31139
 21
-80.42115
 31
0.0
  0
LINE
  8
ALL
 10
41.22369
 20
-38.91585
 30
0.0
 11
41.22369
 21
-23.92645
 31
0.0
  0
LINE
  8
ALL
 10
41.22369
 20
-23.92645
 30
0.0
 11
28.99949
 21
-24.65985
 31
0.0
  0
LINE
  8
ALL
 10
41.31139
 20
-23.42115
 30
0.0
 11
41.31139
 21
-23.51675
 31
0.0
  0
LINE
  8
ALL
 10
28.81139
 20
-25.17115
 30
0.0
 11
28.11139
 21
-25.17115
 31
0.0
  0
LINE
  8
ALL
 10
41.81139
 20
-23.42115
 30
0.0
 11
41.31139
 21
-23.42115
 31
0.0
  0
LINE
  8
ALL
 10
28.81139
 20
-24.85945
 30
0.0
 11
28.81139
 21
-37.98275
 31
0.0
  0
LINE
  8
ALL
 10
27.81139
 20
-25.47115
 30
0.0
 11
27.81139
 21
-37.37115
 31
0.0
  0
ARC
  8
ALL
 10
40.31139
 20
-23.51675
 30
0.0
 40
1.0
 50
335.813782
 51
0.0
  0
ARC
  8
ALL
 10
29.01139
 20
-24.85945
 30
0.0
 40
0.2
 50
93.433624
 51
180.0
  0
LINE
  8
ALL
 10
27.81139
 20
-25.47115
 30
0.0
 11
28.11139
 21
-25.17115
 31
0.0
  0
ARC
  8
ALL
 10
29.01139
 20
-37.98275
 30
0.0
 40
0.2
 50
180.0
 51
266.566376
  0
ARC
  8
ALL
 10
40.31139
 20
-39.32555
 30
0.0
 40
1.0
 50
0.0
 51
24.186218
  0
LINE
  8
ALL
 10
41.81139
 20
-39.42115
 30
0.0
 11
41.31139
 21
-39.42115
 31
0.0
  0
LINE
  8
ALL
 10
28.81139
 20
-37.67115
 30
0.0
 11
28.11139
 21
-37.67115
 31
0.0
  0
LINE
  8
ALL
 10
41.31139
 20
-39.42115
 30
0.0
 11
41.31139
 21
-39.32555
 31
0.0
  0
LINE
  8
ALL
 10
41.22369
 20
-38.91585
 30
0.0
 11
28.99949
 21
-38.18245
 31
0.0
  0
LINE
  8
ALL
 10
27.81139
 20
-37.37115
 30
0.0
 11
28.11139
 21
-37.67115
 31
0.0
  0
LINE
  8
ALL
 10
327.31139
 20
41.47885
 30
0.0
 11
327.31139
 21
24.07885
 31
0.0
  0
LINE
  8
ALL
 10
64.81139
 20
-1.92115
 30
0.0
 11
160.49469
 21
-1.92115
 31
0.0
  0
LINE
  8
ALL
 10
64.81139
 20
53.57885
 30
0.0
 11
319.31139
 21
53.57885
 31
0.0
  0
LINE
  8
ALL
 10
66.88959
 20
23.57885
 30
0.0
 11
161.63579
 21
23.57885
 31
0.0
  0
CIRCLE
  8
ALL
 10
189.31139
 20
8.57885
 30
0.0
 40
4.0
  0
CIRCLE
  8
ALL
 10
189.31139
 20
8.57885
 30
0.0
 40
3.2
  0
LINE
  8
ALL
 10
238.21689
 20
-1.92115
 30
0.0
 11
324.31139
 21
-1.92115
 31
0.0
  0
LINE
  8
ALL
 10
221.90599
 20
23.57885
 30
0.0
 11
322.23799
 21
23.57885
 31
0.0
  0
LINE
  8
ALL
 10
324.31139
 20
48.57885
 30
0.0
 11
324.31139
 21
-1.92115
 31
0.0
  0
ARC
  8
ALL
 10
319.31139
 20
48.57885
 30
0.0
 40
5.0
 50
0.0
 51
90.0
  0
LINE
  8
ALL
 10
324.31139
 20
41.97885
 30
0.0
 11
327.31139
 21
41.47885
 31
0.0
  0
LINE
  8
ALL
 10
327.31139
 20
0.67885
 30
0.0
 11
324.31139
 21
0.17885
 31
0.0
  0
LINE
  8
ALL
 10
347.81139
 20
6.57885
 30
0.0
 11
347.81139
 21
21.57885
 31
0.0
  0
LINE
  8
ALL
 10
346.31139
 20
4.57885
 30
0.0
 11
346.31139
 21
23.57885
 31
0.0
  0
LINE
  8
ALL
 10
339.31139
 20
4.57885
 30
0.0
 11
339.31139
 21
23.57885
 31
0.0
  0
LINE
  8
ALL
 10
349.31139
 20
6.57885
 30
0.0
 11
349.31139
 21
21.57885
 31
0.0
  0
LINE
  8
ALL
 10
329.31139
 20
4.07885
 30
0.0
 11
329.31139
 21
24.07885
 31
0.0
  0
LINE
  8
ALL
 10
329.31139
 20
-40.42115
 30
0.0
 11
329.31139
 21
-20.42115
 31
0.0
  0
LINE
  8
ALL
 10
349.31139
 20
-37.92115
 30
0.0
 11
349.31139
 21
-22.92115
 31
0.0
  0
LINE
  8
ALL
 10
339.31139
 20
-39.92115
 30
0.0
 11
339.31139
 21
-20.92115
 31
0.0
  0
LINE
  8
ALL
 10
346.31139
 20
-39.92115
 30
0.0
 11
346.31139
 21
-20.92115
 31
0.0
  0
LINE
  8
ALL
 10
347.81139
 20
-37.92115
 30
0.0
 11
347.81139
 21
-22.92115
 31
0.0
  0
LINE
  8
ALL
 10
327.31139
 20
4.07885
 30
0.0
 11
327.31139
 21
0.67885
 31
0.0
  0
ARC
  8
ALL
 10
320.31139
 20
-39.11115
 30
0.0
 40
3.9999
 50
300.000732
 51
0.0
  0
LINE
  8
ALL
 10
322.31139
 20
-42.57615
 30
0.0
 11
317.38339
 21
-45.42115
 31
0.0
  0
LINE
  8
ALL
 10
64.81139
 20
-45.42115
 30
0.0
 11
158.52769
 21
-45.42115
 31
0.0
  0
LINE
  8
ALL
 10
64.81139
 20
-2.42115
 30
0.0
 11
160.46459
 21
-2.42115
 31
0.0
  0
LINE
  8
ALL
 10
238.53669
 20
-2.42115
 30
0.0
 11
324.31139
 21
-2.42115
 31
0.0
  0
LINE
  8
ALL
 10
324.31139
 20
-2.42115
 30
0.0
 11
324.31139
 21
-39.11115
 31
0.0
  0
LINE
  8
ALL
 10
266.04119
 20
-45.42115
 30
0.0
 11
317.38339
 21
-45.42115
 31
0.0
  0
LINE
  8
ALL
 10
64.81139
 20
-48.42115
 30
0.0
 11
64.81139
 21
56.57885
 31
0.0
  0
LINE
  8
ALL
 10
43.81139
 20
52.14695
 30
0.0
 11
43.81139
 21
-43.98925
 31
0.0
  0
LINE
  8
ALL
 10
60.81139
 20
56.29655
 30
0.0
 11
60.81139
 21
-48.13875
 31
0.0
  0
LINE
  8
ALL
 10
41.81139
 20
34.07885
 30
0.0
 11
41.81139
 21
43.11315
 31
0.0
  0
LINE
  8
ALL
 10
41.81139
 20
-42.46835
 30
0.0
 11
41.81139
 21
50.62605
 31
0.0
  0
ARC
  8
ALL
 10
42.51139
 20
-42.46835
 30
0.0
 40
0.7
 50
180.0
 51
266.0
  0
ARC
  8
ALL
 10
44.81139
 20
-43.98925
 30
0.0
 40
1.0
 50
180.0
 51
265.962296
  0
LINE
  8
ALL
 10
43.81139
 20
-43.26095
 30
0.0
 11
42.46259
 21
-43.16665
 31
0.0
  0
LINE
  8
ALL
 10
44.74099
 20
-44.98675
 30
0.0
 11
60.81139
 21
-46.12115
 31
0.0
  0
LINE
  8
ALL
 10
60.81139
 20
-48.13875
 30
0.0
 11
64.81139
 21
-48.42115
 31
0.0
  0
LINE
  8
ALL
 10
43.81139
 20
51.41875
 30
0.0
 11
42.46259
 21
51.32435
 31
0.0
  0
ARC
  8
ALL
 10
44.81139
 20
52.14695
 30
0.0
 40
1.0
 50
94.037704
 51
180.0
  0
ARC
  8
ALL
 10
42.51139
 20
50.62605
 30
0.0
 40
0.7
 50
94.0
 51
180.0
  0
LINE
  8
ALL
 10
44.74099
 20
53.14445
 30
0.0
 11
60.81139
 21
54.27885
 31
0.0
  0
LINE
  8
ALL
 10
60.81139
 20
56.29655
 30
0.0
 11
64.81139
 21
56.57885
 31
0.0
  0
ARC
  8
ALL
 10
346.02349
 20
-141.96395
 30
0.0
 40
161.0775
 50
84.239426
 51
88.792923
  0
ARC
  8
ALL
 10
346.02349
 20
-141.96395
 30
0.0
 40
151.0775
 50
84.239426
 51
88.792923
  0
ARC
  8
ALL
 10
357.02349
 20
-32.92515
 30
0.0
 40
41.4852
 50
75.890564
 51
84.239441
  0
ARC
  8
ALL
 10
346.02349
 20
-186.46395
 30
0.0
 40
151.0775
 50
84.239426
 51
88.792923
  0
ARC
  8
ALL
 10
357.02349
 20
-77.42515
 30
0.0
 40
41.4852
 50
75.890564
 51
84.239441
  0
ARC
  8
ALL
 10
346.02349
 20
-186.46395
 30
0.0
 40
161.0775
 50
84.239426
 51
88.792923
  0
ARC
  8
ALL
 10
357.02349
 20
-77.42505
 30
0.0
 40
51.4851
 50
75.890579
 51
84.239456
  0
LINE
  8
ALL
 10
-144.85521
 20
29.04795
 30
0.0
 11
-144.85521
 21
24.44795
 31
0.0
  0
LINE
  8
ALL
 10
-156.15521
 20
23.24795
 30
0.0
 11
-146.05521
 21
23.24795
 31
0.0
  0
LINE
  8
ALL
 10
-157.35521
 20
29.04795
 30
0.0
 11
-157.35521
 21
24.44795
 31
0.0
  0
LINE
  8
ALL
 10
-156.15521
 20
30.24795
 30
0.0
 11
-146.05521
 21
30.24795
 31
0.0
  0
ARC
  8
ALL
 10
-156.15521
 20
29.04795
 30
0.0
 40
1.2
 50
90.0
 51
180.0
  0
ARC
  8
ALL
 10
-146.05521
 20
29.04795
 30
0.0
 40
1.2
 50
0.0
 51
90.0
  0
ARC
  8
ALL
 10
-146.05521
 20
24.44795
 30
0.0
 40
1.2
 50
270.0
 51
0.0
  0
ARC
  8
ALL
 10
-156.15521
 20
24.44795
 30
0.0
 40
1.2
 50
180.0
 51
270.0
  0
LINE
  8
ALL
 10
-144.85521
 20
13.04795
 30
0.0
 11
-144.85521
 21
8.44795
 31
0.0
  0
LINE
  8
ALL
 10
-156.15521
 20
7.24795
 30
0.0
 11
-146.05521
 21
7.24795
 31
0.0
  0
LINE
  8
ALL
 10
-157.35521
 20
13.04795
 30
0.0
 11
-157.35521
 21
8.44795
 31
0.0
  0
LINE
  8
ALL
 10
-156.15521
 20
14.24795
 30
0.0
 11
-146.05521
 21
14.24795
 31
0.0
  0
ARC
  8
ALL
 10
-156.15521
 20
13.04795
 30
0.0
 40
1.2
 50
90.0
 51
180.0
  0
ARC
  8
ALL
 10
-146.05521
 20
13.04795
 30
0.0
 40
1.2
 50
0.0
 51
90.0
  0
ARC
  8
ALL
 10
-146.05521
 20
8.44795
 30
0.0
 40
1.2
 50
270.0
 51
0.0
  0
ARC
  8
ALL
 10
-156.15521
 20
8.44795
 30
0.0
 40
1.2
 50
180.0
 51
270.0
  0
LINE
  8
ALL
 10
-144.85521
 20
-2.95205
 30
0.0
 11
-144.85521
 21
-7.55205
 31
0.0
  0
LINE
  8
ALL
 10
-156.15521
 20
-8.75205
 30
0.0
 11
-146.05521
 21
-8.75205
 31
0.0
  0
LINE
  8
ALL
 10
-157.35521
 20
-2.95205
 30
0.0
 11
-157.35521
 21
-7.55205
 31
0.0
  0
LINE
  8
ALL
 10
-156.15521
 20
-1.75205
 30
0.0
 11
-146.05521
 21
-1.75205
 31
0.0
  0
ARC
  8
ALL
 10
-156.15521
 20
-2.95205
 30
0.0
 40
1.2
 50
90.0
 51
180.0
  0
ARC
  8
ALL
 10
-146.05521
 20
-2.95205
 30
0.0
 40
1.2
 50
0.0
 51
90.0
  0
ARC
  8
ALL
 10
-146.05521
 20
-7.55205
 30
0.0
 40
1.2
 50
270.0
 51
0.0
  0
ARC
  8
ALL
 10
-156.15521
 20
-7.55205
 30
0.0
 40
1.2
 50
180.0
 51
270.0
  0
LINE
  8
ALL
 10
-144.85521
 20
-18.95205
 30
0.0
 11
-144.85521
 21
-23.55205
 31
0.0
  0
LINE
  8
ALL
 10
-156.15521
 20
-24.75205
 30
0.0
 11
-146.05521
 21
-24.75205
 31
0.0
  0
LINE
  8
ALL
 10
-157.35521
 20
-18.95205
 30
0.0
 11
-157.35521
 21
-23.55205
 31
0.0
  0
LINE
  8
ALL
 10
-156.15521
 20
-17.75205
 30
0.0
 11
-146.05521
 21
-17.75205
 31
0.0
  0
ARC
  8
ALL
 10
-156.15521
 20
-18.95205
 30
0.0
 40
1.2
 50
90.0
 51
180.0
  0
ARC
  8
ALL
 10
-146.05521
 20
-18.95205
 30
0.0
 40
1.2
 50
0.0
 51
90.0
  0
ARC
  8
ALL
 10
-146.05521
 20
-23.55205
 30
0.0
 40
1.2
 50
270.0
 51
0.0
  0
ARC
  8
ALL
 10
-156.15521
 20
-23.55205
 30
0.0
 40
1.2
 50
180.0
 51
270.0
  0
LINE
  8
ALL
 10
-160.85521
 20
29.04795
 30
0.0
 11
-160.85521
 21
24.44795
 31
0.0
  0
LINE
  8
ALL
 10
-172.15521
 20
23.24795
 30
0.0
 11
-162.05521
 21
23.24795
 31
0.0
  0
LINE
  8
ALL
 10
-173.35521
 20
29.04795
 30
0.0
 11
-173.35521
 21
24.44795
 31
0.0
  0
LINE
  8
ALL
 10
-172.15521
 20
30.24795
 30
0.0
 11
-162.05521
 21
30.24795
 31
0.0
  0
ARC
  8
ALL
 10
-172.15521
 20
29.04795
 30
0.0
 40
1.2
 50
90.0
 51
180.0
  0
ARC
  8
ALL
 10
-162.05521
 20
29.04795
 30
0.0
 40
1.2
 50
0.0
 51
90.0
  0
ARC
  8
ALL
 10
-162.05521
 20
24.44795
 30
0.0
 40
1.2
 50
270.0
 51
0.0
  0
ARC
  8
ALL
 10
-172.15521
 20
24.44795
 30
0.0
 40
1.2
 50
180.0
 51
270.0
  0
LINE
  8
ALL
 10
-160.85521
 20
13.04795
 30
0.0
 11
-160.85521
 21
8.44795
 31
0.0
  0
LINE
  8
ALL
 10
-172.15521
 20
7.24795
 30
0.0
 11
-162.05521
 21
7.24795
 31
0.0
  0
LINE
  8
ALL
 10
-173.35521
 20
13.04795
 30
0.0
 11
-173.35521
 21
8.44795
 31
0.0
  0
LINE
  8
ALL
 10
-172.15521
 20
14.24795
 30
0.0
 11
-162.05521
 21
14.24795
 31
0.0
  0
ARC
  8
ALL
 10
-172.15521
 20
13.04795
 30
0.0
 40
1.2
 50
90.0
 51
180.0
  0
ARC
  8
ALL
 10
-162.05521
 20
13.04795
 30
0.0
 40
1.2
 50
0.0
 51
90.0
  0
ARC
  8
ALL
 10
-162.05521
 20
8.44795
 30
0.0
 40
1.2
 50
270.0
 51
0.0
  0
ARC
  8
ALL
 10
-172.15521
 20
8.44795
 30
0.0
 40
1.2
 50
180.0
 51
270.0
  0
LINE
  8
ALL
 10
-160.85521
 20
-2.95205
 30
0.0
 11
-160.85521
 21
-7.55205
 31
0.0
  0
LINE
  8
ALL
 10
-172.15521
 20
-8.75205
 30
0.0
 11
-162.05521
 21
-8.75205
 31
0.0
  0
LINE
  8
ALL
 10
-173.35521
 20
-2.95205
 30
0.0
 11
-173.35521
 21
-7.55205
 31
0.0
  0
LINE
  8
ALL
 10
-172.15521
 20
-1.75205
 30
0.0
 11
-162.05521
 21
-1.75205
 31
0.0
  0
ARC
  8
ALL
 10
-172.15521
 20
-2.95205
 30
0.0
 40
1.2
 50
90.0
 51
180.0
  0
ARC
  8
ALL
 10
-162.05521
 20
-2.95205
 30
0.0
 40
1.2
 50
0.0
 51
90.0
  0
ARC
  8
ALL
 10
-162.05521
 20
-7.55205
 30
0.0
 40
1.2
 50
270.0
 51
0.0
  0
ARC
  8
ALL
 10
-172.15521
 20
-7.55205
 30
0.0
 40
1.2
 50
180.0
 51
270.0
  0
LINE
  8
ALL
 10
-160.85521
 20
-18.95205
 30
0.0
 11
-160.85521
 21
-23.55205
 31
0.0
  0
LINE
  8
ALL
 10
-172.15521
 20
-24.75205
 30
0.0
 11
-162.05521
 21
-24.75205
 31
0.0
  0
LINE
  8
ALL
 10
-173.35521
 20
-18.95205
 30
0.0
 11
-173.35521
 21
-23.55205
 31
0.0
  0
LINE
  8
ALL
 10
-172.15521
 20
-17.75205
 30
0.0
 11
-162.05521
 21
-17.75205
 31
0.0
  0
ARC
  8
ALL
 10
-172.15521
 20
-18.95205
 30
0.0
 40
1.2
 50
90.0
 51
180.0
  0
ARC
  8
ALL
 10
-162.05521
 20
-18.95205
 30
0.0
 40
1.2
 50
0.0
 51
90.0
  0
ARC
  8
ALL
 10
-162.05521
 20
-23.55205
 30
0.0
 40
1.2
 50
270.0
 51
0.0
  0
ARC
  8
ALL
 10
-172.15521
 20
-23.55205
 30
0.0
 40
1.2
 50
180.0
 51
270.0
  0
LINE
  8
ALL
 10
-176.85521
 20
29.04795
 30
0.0
 11
-176.85521
 21
24.44795
 31
0.0
  0
LINE
  8
ALL
 10
-188.15521
 20
23.24795
 30
0.0
 11
-178.05521
 21
23.24795
 31
0.0
  0
LINE
  8
ALL
 10
-189.35521
 20
29.04795
 30
0.0
 11
-189.35521
 21
24.44795
 31
0.0
  0
LINE
  8
ALL
 10
-188.15521
 20
30.24795
 30
0.0
 11
-178.05521
 21
30.24795
 31
0.0
  0
ARC
  8
ALL
 10
-188.15521
 20
29.04795
 30
0.0
 40
1.2
 50
90.0
 51
180.0
  0
ARC
  8
ALL
 10
-178.05521
 20
29.04795
 30
0.0
 40
1.2
 50
0.0
 51
90.0
  0
ARC
  8
ALL
 10
-178.05521
 20
24.44795
 30
0.0
 40
1.2
 50
270.0
 51
0.0
  0
ARC
  8
ALL
 10
-188.15521
 20
24.44795
 30
0.0
 40
1.2
 50
180.0
 51
270.0
  0
LINE
  8
ALL
 10
-176.85521
 20
13.04795
 30
0.0
 11
-176.85521
 21
8.44795
 31
0.0
  0
LINE
  8
ALL
 10
-188.15521
 20
7.24795
 30
0.0
 11
-178.05521
 21
7.24795
 31
0.0
  0
LINE
  8
ALL
 10
-189.35521
 20
13.04795
 30
0.0
 11
-189.35521
 21
8.44795
 31
0.0
  0
LINE
  8
ALL
 10
-188.15521
 20
14.24795
 30
0.0
 11
-178.05521
 21
14.24795
 31
0.0
  0
ARC
  8
ALL
 10
-188.15521
 20
13.04795
 30
0.0
 40
1.2
 50
90.0
 51
180.0
  0
ARC
  8
ALL
 10
-178.05521
 20
13.04795
 30
0.0
 40
1.2
 50
0.0
 51
90.0
  0
ARC
  8
ALL
 10
-178.05521
 20
8.44795
 30
0.0
 40
1.2
 50
270.0
 51
0.0
  0
ARC
  8
ALL
 10
-188.15521
 20
8.44795
 30
0.0
 40
1.2
 50
180.0
 51
270.0
  0
LINE
  8
ALL
 10
-176.85521
 20
-2.95205
 30
0.0
 11
-176.85521
 21
-7.55205
 31
0.0
  0
LINE
  8
ALL
 10
-188.15521
 20
-8.75205
 30
0.0
 11
-178.05521
 21
-8.75205
 31
0.0
  0
LINE
  8
ALL
 10
-189.35521
 20
-2.95205
 30
0.0
 11
-189.35521
 21
-7.55205
 31
0.0
  0
LINE
  8
ALL
 10
-188.15521
 20
-1.75205
 30
0.0
 11
-178.05521
 21
-1.75205
 31
0.0
  0
ARC
  8
ALL
 10
-188.15521
 20
-2.95205
 30
0.0
 40
1.2
 50
90.0
 51
180.0
  0
ARC
  8
ALL
 10
-178.05521
 20
-2.95205
 30
0.0
 40
1.2
 50
0.0
 51
90.0
  0
ARC
  8
ALL
 10
-178.05521
 20
-7.55205
 30
0.0
 40
1.2
 50
270.0
 51
0.0
  0
ARC
  8
ALL
 10
-188.15521
 20
-7.55205
 30
0.0
 40
1.2
 50
180.0
 51
270.0
  0
LINE
  8
ALL
 10
-176.85521
 20
-18.95205
 30
0.0
 11
-176.85521
 21
-23.55205
 31
0.0
  0
LINE
  8
ALL
 10
-188.15521
 20
-24.75205
 30
0.0
 11
-178.05521
 21
-24.75205
 31
0.0
  0
LINE
  8
ALL
 10
-189.35521
 20
-18.95205
 30
0.0
 11
-189.35521
 21
-23.55205
 31
0.0
  0
LINE
  8
ALL
 10
-188.15521
 20
-17.75205
 30
0.0
 11
-178.05521
 21
-17.75205
 31
0.0
  0
ARC
  8
ALL
 10
-188.15521
 20
-18.95205
 30
0.0
 40
1.2
 50
90.0
 51
180.0
  0
ARC
  8
ALL
 10
-178.05521
 20
-18.95205
 30
0.0
 40
1.2
 50
0.0
 51
90.0
  0
ARC
  8
ALL
 10
-178.05521
 20
-23.55205
 30
0.0
 40
1.2
 50
270.0
 51
0.0
  0
ARC
  8
ALL
 10
-188.15521
 20
-23.55205
 30
0.0
 40
1.2
 50
180.0
 51
270.0
  0
LINE
  8
ALL
 10
-192.85521
 20
29.04795
 30
0.0
 11
-192.85521
 21
24.44795
 31
0.0
  0
LINE
  8
ALL
 10
-204.15521
 20
23.24795
 30
0.0
 11
-194.05521
 21
23.24795
 31
0.0
  0
LINE
  8
ALL
 10
-205.35521
 20
29.04795
 30
0.0
 11
-205.35521
 21
24.44795
 31
0.0
  0
LINE
  8
ALL
 10
-204.15521
 20
30.24795
 30
0.0
 11
-194.05521
 21
30.24795
 31
0.0
  0
ARC
  8
ALL
 10
-204.15521
 20
29.04795
 30
0.0
 40
1.2
 50
90.0
 51
180.0
  0
ARC
  8
ALL
 10
-194.05521
 20
29.04795
 30
0.0
 40
1.2
 50
0.0
 51
90.0
  0
ARC
  8
ALL
 10
-194.05521
 20
24.44795
 30
0.0
 40
1.2
 50
270.0
 51
0.0
  0
ARC
  8
ALL
 10
-204.15521
 20
24.44795
 30
0.0
 40
1.2
 50
180.0
 51
270.0
  0
LINE
  8
ALL
 10
-192.85521
 20
13.04795
 30
0.0
 11
-192.85521
 21
8.44795
 31
0.0
  0
LINE
  8
ALL
 10
-204.15521
 20
7.24795
 30
0.0
 11
-194.05521
 21
7.24795
 31
0.0
  0
LINE
  8
ALL
 10
-205.35521
 20
13.04795
 30
0.0
 11
-205.35521
 21
8.44795
 31
0.0
  0
LINE
  8
ALL
 10
-204.15521
 20
14.24795
 30
0.0
 11
-194.05521
 21
14.24795
 31
0.0
  0
ARC
  8
ALL
 10
-204.15521
 20
13.04795
 30
0.0
 40
1.2
 50
90.0
 51
180.0
  0
ARC
  8
ALL
 10
-194.05521
 20
13.04795
 30
0.0
 40
1.2
 50
0.0
 51
90.0
  0
ARC
  8
ALL
 10
-194.05521
 20
8.44795
 30
0.0
 40
1.2
 50
270.0
 51
0.0
  0
ARC
  8
ALL
 10
-204.15521
 20
8.44795
 30
0.0
 40
1.2
 50
180.0
 51
270.0
  0
LINE
  8
ALL
 10
-192.85521
 20
-2.95205
 30
0.0
 11
-192.85521
 21
-7.55205
 31
0.0
  0
LINE
  8
ALL
 10
-204.15521
 20
-8.75205
 30
0.0
 11
-194.05521
 21
-8.75205
 31
0.0
  0
LINE
  8
ALL
 10
-205.35521
 20
-2.95205
 30
0.0
 11
-205.35521
 21
-7.55205
 31
0.0
  0
LINE
  8
ALL
 10
-204.15521
 20
-1.75205
 30
0.0
 11
-194.05521
 21
-1.75205
 31
0.0
  0
ARC
  8
ALL
 10
-204.15521
 20
-2.95205
 30
0.0
 40
1.2
 50
90.0
 51
180.0
  0
ARC
  8
ALL
 10
-194.05521
 20
-2.95205
 30
0.0
 40
1.2
 50
0.0
 51
90.0
  0
ARC
  8
ALL
 10
-194.05521
 20
-7.55205
 30
0.0
 40
1.2
 50
270.0
 51
0.0
  0
ARC
  8
ALL
 10
-204.15521
 20
-7.55205
 30
0.0
 40
1.2
 50
180.0
 51
270.0
  0
LINE
  8
ALL
 10
-192.85521
 20
-18.95205
 30
0.0
 11
-192.85521
 21
-23.55205
 31
0.0
  0
LINE
  8
ALL
 10
-204.15521
 20
-24.75205
 30
0.0
 11
-194.05521
 21
-24.75205
 31
0.0
  0
LINE
  8
ALL
 10
-205.35521
 20
-18.95205
 30
0.0
 11
-205.35521
 21
-23.55205
 31
0.0
  0
LINE
  8
ALL
 10
-204.15521
 20
-17.75205
 30
0.0
 11
-194.05521
 21
-17.75205
 31
0.0
  0
ARC
  8
ALL
 10
-204.15521
 20
-18.95205
 30
0.0
 40
1.2
 50
90.0
 51
180.0
  0
ARC
  8
ALL
 10
-194.05521
 20
-18.95205
 30
0.0
 40
1.2
 50
0.0
 51
90.0
  0
ARC
  8
ALL
 10
-194.05521
 20
-23.55205
 30
0.0
 40
1.2
 50
270.0
 51
0.0
  0
ARC
  8
ALL
 10
-204.15521
 20
-23.55205
 30
0.0
 40
1.2
 50
180.0
 51
270.0
  0
LINE
  8
ALL
 10
-103.80521
 20
38.81525
 30
0.0
 11
-103.80521
 21
107.00625
 31
0.0
  0
POLYLINE
  8
ALL
 66
     1
 10
0.0
 20
0.0
 30
0.0
 70
     1
  0
VERTEX
  8
ALL
 10
-396.92743
 20
101.32703
 30
0.0
  0
VERTEX
  8
ALL
 10
-396.92743
 20
104.68547
 30
0.0
  0
VERTEX
  8
ALL
 10
-406.80521
 20
103.00625
 30
0.0
  0
SEQEND
  8
0
  0
POLYLINE
  8
ALL
 66
     1
 10
0.0
 20
0.0
 30
0.0
 70
     1
  0
VERTEX
  8
ALL
 10
-113.68299
 20
104.68547
 30
0.0
  0
VERTEX
  8
ALL
 10
-113.68299
 20
101.32703
 30
0.0
  0
VERTEX
  8
ALL
 10
-103.80521
 20
103.00625
 30
0.0
  0
SEQEND
  8
0
  0
LINE
  8
ALL
 10
-406.80521
 20
103.00625
 30
0.0
 11
-103.80521
 21
103.00625
 31
0.0
  0
LINE
  8
ALL
 10
-383.30521
 20
63.00625
 30
0.0
 11
-383.30521
 21
82.00625
 31
0.0
  0
LINE
  8
ALL
 10
-127.30521
 20
63.00625
 30
0.0
 11
-127.30521
 21
82.00625
 31
0.0
  0
LINE
  8
ALL
 10
-113.68861
 20
57.24795
 30
0.0
 11
-77.68861
 21
57.24795
 31
0.0
  0
LINE
  8
ALL
 10
-113.68861
 20
-47.75205
 30
0.0
 11
-77.68861
 21
-47.75205
 31
0.0
  0
LINE
  8
ALL
 10
-387.30521
 20
38.57885
 30
0.0
 11
-387.30521
 21
-72.42115
 31
0.0
  0
LINE
  8
ALL
 10
-383.30521
 20
38.57885
 30
0.0
 11
-383.30521
 21
-72.42115
 31
0.0
  0
LINE
  8
ALL
 10
-127.30521
 20
38.57885
 30
0.0
 11
-127.30521
 21
-72.42115
 31
0.0
  0
LINE
  8
ALL
 10
-123.30521
 20
38.57885
 30
0.0
 11
-123.30521
 21
-72.42115
 31
0.0
  0
LINE
  8
ALL
 10
-123.30521
 20
38.57885
 30
0.0
 11
-127.30521
 21
38.57885
 31
0.0
  0
LINE
  8
ALL
 10
-383.30521
 20
38.57885
 30
0.0
 11
-387.30521
 21
38.57885
 31
0.0
  0
LINE
  8
ALL
 10
-131.30521
 20
-76.42115
 30
0.0
 11
-379.30521
 21
-76.42115
 31
0.0
  0
LINE
  8
ALL
 10
-131.30521
 20
-51.42115
 30
0.0
 11
-131.30521
 21
-70.42115
 31
0.0
  0
ARC
  8
ALL
 10
-131.30521
 20
-72.42115
 30
0.0
 40
4.0
 50
270.0
 51
0.0
  0
ARC
  8
ALL
 10
-379.30521
 20
-72.42115
 30
0.0
 40
4.0
 50
180.0
 51
270.0
  0
ARC
  8
ALL
 10
-379.30521
 20
-72.42115
 30
0.0
 40
8.0
 50
180.0
 51
270.0
  0
ARC
  8
ALL
 10
-131.30521
 20
-72.42115
 30
0.0
 40
8.0
 50
270.0
 51
0.0
  0
ARC
  8
ALL
 10
-152.30521
 20
-76.42115
 30
0.0
 40
4.0
 50
90.0
 51
180.0
  0
ARC
  8
ALL
 10
-127.30521
 20
-51.42115
 30
0.0
 40
4.0
 50
90.0
 51
180.0
  0
LINE
  8
ALL
 10
-133.30521
 20
-72.42115
 30
0.0
 11
-152.30521
 21
-72.42115
 31
0.0
  0
ARC
  8
ALL
 10
-133.30521
 20
-70.42115
 30
0.0
 40
2.0
 50
270.0
 51
0.0
  0
LINE
  8
ALL
 10
-114.30521
 20
-4.42115
 30
0.0
 11
-121.80521
 21
-4.42115
 31
0.0
  0
LINE
  8
ALL
 10
-114.30521
 20
21.57885
 30
0.0
 11
-121.80521
 21
21.57885
 31
0.0
  0
ARC
  8
ALL
 10
-105.30521
 20
25.77795
 30
0.0
 40
1.5
 50
0.0
 51
81.869904
  0
ARC
  8
ALL
 10
-105.30521
 20
-7.28205
 30
0.0
 40
1.5
 50
278.904388
 51
0.0
  0
LINE
  8
ALL
 10
-114.30521
 20
-10.21045
 30
0.0
 11
-105.07311
 21
-8.76395
 31
0.0
  0
LINE
  8
ALL
 10
-114.30521
 20
-3.74475
 30
0.0
 11
-103.80521
 21
-3.33035
 31
0.0
  0
LINE
  8
ALL
 10
-114.30521
 20
19.75175
 30
0.0
 11
-103.80521
 21
18.36275
 31
0.0
  0
LINE
  8
ALL
 10
-114.30521
 20
9.29015
 30
0.0
 11
-103.80521
 21
9.89245
 31
0.0
  0
LINE
  8
ALL
 10
-114.30521
 20
28.57885
 30
0.0
 11
-105.09311
 21
27.26285
 31
0.0
  0
LINE
  8
ALL
 10
-103.80521
 20
25.77795
 30
0.0
 11
-103.80521
 21
-7.28205
 31
0.0
  0
LINE
  8
ALL
 10
-114.30521
 20
28.57885
 30
0.0
 11
-114.30521
 21
-10.21045
 31
0.0
  0
LINE
  8
ALL
 10
-121.80521
 20
-4.42115
 30
0.0
 11
-121.80521
 21
21.57885
 31
0.0
  0
LINE
  8
ALL
 10
-121.80521
 20
-4.42115
 30
0.0
 11
-123.30521
 21
-4.42115
 31
0.0
  0
LINE
  8
ALL
 10
-121.80521
 20
21.57885
 30
0.0
 11
-123.30521
 21
21.57885
 31
0.0
  0
LINE
  8
ALL
 10
-388.80521
 20
21.57885
 30
0.0
 11
-387.30521
 21
21.57885
 31
0.0
  0
LINE
  8
ALL
 10
-388.80521
 20
-4.42115
 30
0.0
 11
-387.30521
 21
-4.42115
 31
0.0
  0
LINE
  8
ALL
 10
-388.80521
 20
-4.42115
 30
0.0
 11
-388.80521
 21
21.57885
 31
0.0
  0
LINE
  8
ALL
 10
-396.30521
 20
28.57885
 30
0.0
 11
-396.30521
 21
-10.21045
 31
0.0
  0
LINE
  8
ALL
 10
-406.80521
 20
25.77795
 30
0.0
 11
-406.80521
 21
-7.28205
 31
0.0
  0
LINE
  8
ALL
 10
-396.30521
 20
28.57885
 30
0.0
 11
-405.51741
 21
27.26285
 31
0.0
  0
LINE
  8
ALL
 10
-396.30521
 20
9.29015
 30
0.0
 11
-406.80521
 21
9.89245
 31
0.0
  0
LINE
  8
ALL
 10
-396.30521
 20
19.75175
 30
0.0
 11
-406.80521
 21
18.36275
 31
0.0
  0
LINE
  8
ALL
 10
-396.30521
 20
-3.74475
 30
0.0
 11
-406.80521
 21
-3.33035
 31
0.0
  0
LINE
  8
ALL
 10
-396.30521
 20
-10.21045
 30
0.0
 11
-405.53741
 21
-8.76395
 31
0.0
  0
ARC
  8
ALL
 10
-405.30521
 20
-7.28205
 30
0.0
 40
1.5
 50
180.0
 51
261.095612
  0
ARC
  8
ALL
 10
-405.30521
 20
25.77795
 30
0.0
 40
1.5
 50
98.130096
 51
180.0
  0
LINE
  8
ALL
 10
-396.30521
 20
21.57885
 30
0.0
 11
-388.80521
 21
21.57885
 31
0.0
  0
LINE
  8
ALL
 10
-396.30521
 20
-4.42115
 30
0.0
 11
-388.80521
 21
-4.42115
 31
0.0
  0
ARC
  8
ALL
 10
-377.30521
 20
-70.42115
 30
0.0
 40
2.0
 50
180.0
 51
270.0
  0
LINE
  8
ALL
 10
-377.30521
 20
-72.42115
 30
0.0
 11
-358.30521
 21
-72.42115
 31
0.0
  0
ARC
  8
ALL
 10
-383.30521
 20
-51.42115
 30
0.0
 40
4.0
 50
0.0
 51
90.0
  0
ARC
  8
ALL
 10
-358.30521
 20
-76.42115
 30
0.0
 40
4.0
 50
0.0
 51
90.0
  0
LINE
  8
ALL
 10
-379.30521
 20
-51.42115
 30
0.0
 11
-379.30521
 21
-70.42115
 31
0.0
  0
LINE
  8
ALL
 10
-131.30521
 20
-80.42115
 30
0.0
 11
-379.30521
 21
-80.42115
 31
0.0
  0
LINE
  8
ALL
 10
-167.10521
 20
-15.25205
 30
0.0
 11
-165.30101
 21
-15.25205
 31
0.0
  0
LINE
  8
ALL
 10
-167.10521
 20
-17.75205
 30
0.0
 11
-167.10521
 21
-15.25205
 31
0.0
  0
LINE
  8
ALL
 10
-167.10521
 20
-24.75205
 30
0.0
 11
-167.10521
 21
-27.25205
 31
0.0
  0
LINE
  8
ALL
 10
-170.09111
 20
-27.25205
 30
0.0
 11
-167.10521
 21
-27.25205
 31
0.0
  0
LINE
  8
ALL
 10
-180.11941
 20
-27.25205
 30
0.0
 11
-183.10521
 21
-27.25205
 31
0.0
  0
LINE
  8
ALL
 10
-183.10521
 20
-24.75205
 30
0.0
 11
-183.10521
 21
-27.25205
 31
0.0
  0
LINE
  8
ALL
 10
-151.10521
 20
-15.25205
 30
0.0
 11
-152.90951
 21
-15.25205
 31
0.0
  0
LINE
  8
ALL
 10
-151.10521
 20
-17.75205
 30
0.0
 11
-151.10521
 21
-15.25205
 31
0.0
  0
CIRCLE
  8
ALL
 10
-242.80521
 20
-30.75205
 30
0.0
 40
3.3
  0
CIRCLE
  8
ALL
 10
-281.30521
 20
-30.75205
 30
0.0
 40
5.0
  0
CIRCLE
  8
ALL
 10
-281.30521
 20
-30.75205
 30
0.0
 40
6.0
  0
LINE
  8
ALL
 10
-282.57851
 20
-32.55735
 30
0.0
 11
-283.37851
 21
-33.94295
 31
0.0
  0
LINE
  8
ALL
 10
-282.23201
 20
-32.75735
 30
0.0
 11
-283.03201
 21
-34.14295
 31
0.0
  0
ARC
  8
ALL
 10
-282.40521
 20
-32.65735
 30
0.0
 40
0.2
 50
330.0
 51
150.0
  0
ARC
  8
ALL
 10
-283.20521
 20
-34.04295
 30
0.0
 40
0.2
 50
150.0
 51
330.0
  0
CIRCLE
  8
ALL
 10
-348.30521
 20
-30.75205
 30
0.0
 40
6.0
  0
CIRCLE
  8
ALL
 10
-348.30521
 20
-30.75205
 30
0.0
 40
5.0
  0
CIRCLE
  8
ALL
 10
-348.30521
 20
-30.75205
 30
0.0
 40
3.1615
  0
LINE
  8
ALL
 10
-348.80521
 20
-27.63035
 30
0.0
 11
-348.80521
 21
-26.85415
 31
0.0
  0
LINE
  8
ALL
 10
-347.80521
 20
-27.63035
 30
0.0
 11
-347.80521
 21
-26.85415
 31
0.0
  0
LINE
  8
ALL
 10
-348.80521
 20
-26.85415
 30
0.0
 11
-347.80521
 21
-26.85415
 31
0.0
  0
CIRCLE
  8
ALL
 10
-348.30521
 20
-28.65865
 30
0.0
 40
0.4735
  0
CIRCLE
  8
ALL
 10
-350.11821
 20
-29.70535
 30
0.0
 40
0.4735
  0
CIRCLE
  8
ALL
 10
-350.11821
 20
-31.79875
 30
0.0
 40
0.4735
  0
CIRCLE
  8
ALL
 10
-348.30521
 20
-32.84545
 30
0.0
 40
0.4735
  0
CIRCLE
  8
ALL
 10
-346.49231
 20
-31.79875
 30
0.0
 40
0.4735
  0
CIRCLE
  8
ALL
 10
-346.49231
 20
-29.70535
 30
0.0
 40
0.4735
  0
LINE
  8
ALL
 10
-349.85971
 20
-34.36145
 30
0.0
 11
-350.72031
 21
-33.85225
 31
0.0
  0
LINE
  8
ALL
 10
-350.32511
 20
-33.18425
 30
0.0
 11
-350.72031
 21
-33.85225
 31
0.0
  0
LINE
  8
ALL
 10
-349.46451
 20
-33.69345
 30
0.0
 11
-349.85971
 21
-34.36145
 31
0.0
  0
LINE
  8
ALL
 10
-345.68241
 20
-33.67855
 30
0.0
 11
-346.50591
 21
-34.24575
 31
0.0
  0
LINE
  8
ALL
 10
-346.94621
 20
-33.60655
 30
0.0
 11
-346.50591
 21
-34.24575
 31
0.0
  0
LINE
  8
ALL
 10
-346.12271
 20
-33.03935
 30
0.0
 11
-345.68241
 21
-33.67855
 31
0.0
  0
LINE
  8
ALL
 10
-344.40731
 20
-30.25205
 30
0.0
 11
-344.40731
 21
-31.25205
 31
0.0
  0
LINE
  8
ALL
 10
-345.18351
 20
-31.25205
 30
0.0
 11
-344.40731
 21
-31.25205
 31
0.0
  0
LINE
  8
ALL
 10
-345.18351
 20
-30.25205
 30
0.0
 11
-344.40731
 21
-30.25205
 31
0.0
  0
LINE
  8
ALL
 10
-352.05711
 20
-31.92135
 30
0.0
 11
-352.23081
 21
-30.93655
 31
0.0
  0
LINE
  8
ALL
 10
-351.46641
 20
-30.80175
 30
0.0
 11
-352.23081
 21
-30.93655
 31
0.0
  0
LINE
  8
ALL
 10
-351.29271
 20
-31.78655
 30
0.0
 11
-352.05711
 21
-31.92135
 31
0.0
  0
ARC
  8
ALL
 10
-316.70521
 20
-34.04295
 30
0.0
 40
0.2
 50
150.0
 51
330.0
  0
ARC
  8
ALL
 10
-315.90521
 20
-32.65735
 30
0.0
 40
0.2
 50
330.0
 51
150.0
  0
LINE
  8
ALL
 10
-315.73201
 20
-32.75735
 30
0.0
 11
-316.53201
 21
-34.14295
 31
0.0
  0
LINE
  8
ALL
 10
-316.07851
 20
-32.55735
 30
0.0
 11
-316.87851
 21
-33.94295
 31
0.0
  0
CIRCLE
  8
ALL
 10
-314.80521
 20
-30.75205
 30
0.0
 40
6.0
  0
CIRCLE
  8
ALL
 10
-314.80521
 20
-30.75205
 30
0.0
 40
5.0
  0
CIRCLE
  8
ALL
 10
-242.80521
 20
-30.75205
 30
0.0
 40
5.95
  0
CIRCLE
  8
ALL
 10
-242.80521
 20
-30.75205
 30
0.0
 40
6.25
  0
CIRCLE
  8
ALL
 10
-242.80521
 20
-30.75205
 30
0.0
 40
8.0
  0
ARC
  8
ALL
 10
-243.40521
 20
42.54795
 30
0.0
 40
0.6
 50
270.0
 51
0.0
  0
ARC
  8
ALL
 10
-243.40521
 20
47.34795
 30
0.0
 40
0.6
 50
0.0
 51
90.0
  0
ARC
  8
ALL
 10
-306.20521
 20
42.54795
 30
0.0
 40
0.6
 50
180.0
 51
270.0
  0
ARC
  8
ALL
 10
-306.20521
 20
47.34795
 30
0.0
 40
0.6
 50
90.0
 51
180.0
  0
LINE
  8
ALL
 10
-370.00521
 20
-21.25205
 30
0.0
 11
-370.00521
 21
-43.45205
 31
0.0
  0
LINE
  8
ALL
 10
-372.00521
 20
-33.25205
 30
0.0
 11
-372.00521
 21
-34.45205
 31
0.0
  0
LINE
  8
ALL
 10
-243.40521
 20
47.94795
 30
0.0
 11
-306.20521
 21
47.94795
 31
0.0
  0
LINE
  8
ALL
 10
-242.80521
 20
42.54795
 30
0.0
 11
-242.80521
 21
47.34795
 31
0.0
  0
LINE
  8
ALL
 10
-306.80521
 20
42.54795
 30
0.0
 11
-306.80521
 21
47.34795
 31
0.0
  0
LINE
  8
ALL
 10
-243.40521
 20
41.94795
 30
0.0
 11
-306.20521
 21
41.94795
 31
0.0
  0
ARC
  8
ALL
 10
-132.30521
 20
52.24795
 30
0.0
 40
5.0
 50
0.0
 51
90.0
  0
ARC
  8
ALL
 10
-378.30521
 20
-42.75205
 30
0.0
 40
5.0
 50
180.0
 51
270.0
  0
ARC
  8
ALL
 10
-378.30521
 20
52.24795
 30
0.0
 40
5.0
 50
90.0
 51
180.0
  0
ARC
  8
ALL
 10
-132.30521
 20
-42.75205
 30
0.0
 40
5.0
 50
270.0
 51
0.0
  0
ARC
  8
ALL
 10
-377.00521
 20
50.94795
 30
0.0
 40
2.0
 50
90.0
 51
180.0
  0
ARC
  8
ALL
 10
-377.00521
 20
-41.45205
 30
0.0
 40
2.0
 50
180.0
 51
270.0
  0
ARC
  8
ALL
 10
-133.60521
 20
-41.45205
 30
0.0
 40
2.0
 50
270.0
 51
0.0
  0
ARC
  8
ALL
 10
-133.60521
 20
50.94795
 30
0.0
 40
2.0
 50
0.0
 51
90.0
  0
LINE
  8
ALL
 10
-132.80521
 20
-45.25205
 30
0.0
 11
-377.80521
 21
-45.25205
 31
0.0
  0
LINE
  8
ALL
 10
-132.80521
 20
54.74795
 30
0.0
 11
-377.80521
 21
54.74795
 31
0.0
  0
LINE
  8
ALL
 10
-129.80521
 20
51.74795
 30
0.0
 11
-129.80521
 21
-42.25205
 31
0.0
  0
CIRCLE
  8
ALL
 10
-281.30521
 20
-30.75205
 30
0.0
 40
4.3
  0
CIRCLE
  8
ALL
 10
-314.80521
 20
-30.75205
 30
0.0
 40
4.3
  0
LINE
  8
ALL
 10
-370.00521
 20
30.84795
 30
0.0
 11
-370.00521
 21
32.84795
 31
0.0
  0
CIRCLE
  8
ALL
 10
-242.80521
 20
-30.75205
 30
0.0
 40
8.5
  0
CIRCLE
  8
ALL
 10
-281.30521
 20
-30.75205
 30
0.0
 40
6.5
  0
CIRCLE
  8
ALL
 10
-314.80521
 20
-30.75205
 30
0.0
 40
6.5
  0
CIRCLE
  8
ALL
 10
-348.30521
 20
-30.75205
 30
0.0
 40
6.6
  0
LINE
  8
ALL
 10
-221.60521
 20
33.94795
 30
0.0
 11
-218.60521
 21
36.94795
 31
0.0
  0
LINE
  8
ALL
 10
-221.60521
 20
-15.25205
 30
0.0
 11
-218.60521
 21
-18.25205
 31
0.0
  0
LINE
  8
ALL
 10
-304.80521
 20
-18.25205
 30
0.0
 11
-301.80521
 21
-15.25205
 31
0.0
  0
LINE
  8
ALL
 10
-304.80521
 20
36.94795
 30
0.0
 11
-301.80521
 21
33.94795
 31
0.0
  0
LINE
  8
ALL
 10
-372.00521
 20
-42.95205
 30
0.0
 11
-370.00521
 21
-42.95205
 31
0.0
  0
LINE
  8
ALL
 10
-370.00521
 20
-43.45205
 30
0.0
 11
-216.60521
 21
-43.45205
 31
0.0
  0
LINE
  8
ALL
 10
-382.00521
 20
-35.65205
 30
0.0
 11
-372.00521
 21
-35.65205
 31
0.0
  0
LINE
  8
ALL
 10
-379.00521
 20
-41.45205
 30
0.0
 11
-379.00521
 21
-35.65205
 31
0.0
  0
LINE
  8
ALL
 10
-372.00521
 20
-35.65205
 30
0.0
 11
-372.00521
 21
-43.45205
 31
0.0
  0
LINE
  8
ALL
 10
-380.80521
 20
-35.65205
 30
0.0
 11
-380.80521
 21
-42.25205
 31
0.0
  0
LINE
  8
ALL
 10
-382.00521
 20
-33.25205
 30
0.0
 11
-382.00521
 21
-34.45205
 31
0.0
  0
LINE
  8
ALL
 10
-382.00521
 20
-33.25205
 30
0.0
 11
-372.00521
 21
-33.25205
 31
0.0
  0
LINE
  8
ALL
 10
-382.00521
 20
-34.45205
 30
0.0
 11
-372.00521
 21
-34.45205
 31
0.0
  0
LINE
  8
ALL
 10
-378.50521
 20
-34.45205
 30
0.0
 11
-378.50521
 21
-35.65205
 31
0.0
  0
LINE
  8
ALL
 10
-380.30521
 20
-34.45205
 30
0.0
 11
-380.30521
 21
-35.65205
 31
0.0
  0
LINE
  8
ALL
 10
-381.50521
 20
-34.45205
 30
0.0
 11
-381.50521
 21
-35.65205
 31
0.0
  0
LINE
  8
ALL
 10
-382.00521
 20
-30.85205
 30
0.0
 11
-382.00521
 21
-32.05205
 31
0.0
  0
LINE
  8
ALL
 10
-382.00521
 20
-30.85205
 30
0.0
 11
-372.00521
 21
-30.85205
 31
0.0
  0
LINE
  8
ALL
 10
-372.00521
 20
-30.85205
 30
0.0
 11
-372.00521
 21
-32.05205
 31
0.0
  0
LINE
  8
ALL
 10
-382.00521
 20
-32.05205
 30
0.0
 11
-372.00521
 21
-32.05205
 31
0.0
  0
LINE
  8
ALL
 10
-378.50521
 20
-32.05205
 30
0.0
 11
-378.50521
 21
-33.25205
 31
0.0
  0
LINE
  8
ALL
 10
-380.30521
 20
-32.05205
 30
0.0
 11
-380.30521
 21
-33.25205
 31
0.0
  0
LINE
  8
ALL
 10
-381.50521
 20
-32.05205
 30
0.0
 11
-381.50521
 21
-33.25205
 31
0.0
  0
LINE
  8
ALL
 10
-382.00521
 20
-28.45205
 30
0.0
 11
-382.00521
 21
-29.65205
 31
0.0
  0
LINE
  8
ALL
 10
-382.00521
 20
-28.45205
 30
0.0
 11
-372.00521
 21
-28.45205
 31
0.0
  0
LINE
  8
ALL
 10
-372.00521
 20
-28.45205
 30
0.0
 11
-372.00521
 21
-29.65205
 31
0.0
  0
LINE
  8
ALL
 10
-382.00521
 20
-29.65205
 30
0.0
 11
-372.00521
 21
-29.65205
 31
0.0
  0
LINE
  8
ALL
 10
-378.50521
 20
-29.65205
 30
0.0
 11
-378.50521
 21
-30.85205
 31
0.0
  0
LINE
  8
ALL
 10
-380.30521
 20
-29.65205
 30
0.0
 11
-380.30521
 21
-30.85205
 31
0.0
  0
LINE
  8
ALL
 10
-381.50521
 20
-29.65205
 30
0.0
 11
-381.50521
 21
-30.85205
 31
0.0
  0
LINE
  8
ALL
 10
-382.00521
 20
-26.05205
 30
0.0
 11
-382.00521
 21
-27.25205
 31
0.0
  0
LINE
  8
ALL
 10
-382.00521
 20
-26.05205
 30
0.0
 11
-372.00521
 21
-26.05205
 31
0.0
  0
LINE
  8
ALL
 10
-372.00521
 20
-26.05205
 30
0.0
 11
-372.00521
 21
-27.25205
 31
0.0
  0
LINE
  8
ALL
 10
-382.00521
 20
-27.25205
 30
0.0
 11
-372.00521
 21
-27.25205
 31
0.0
  0
LINE
  8
ALL
 10
-378.50521
 20
-27.25205
 30
0.0
 11
-378.50521
 21
-28.45205
 31
0.0
  0
LINE
  8
ALL
 10
-380.30521
 20
-27.25205
 30
0.0
 11
-380.30521
 21
-28.45205
 31
0.0
  0
LINE
  8
ALL
 10
-381.50521
 20
-27.25205
 30
0.0
 11
-381.50521
 21
-28.45205
 31
0.0
  0
LINE
  8
ALL
 10
-382.00521
 20
-23.65205
 30
0.0
 11
-382.00521
 21
-24.85205
 31
0.0
  0
LINE
  8
ALL
 10
-382.00521
 20
-23.65205
 30
0.0
 11
-372.00521
 21
-23.65205
 31
0.0
  0
LINE
  8
ALL
 10
-372.00521
 20
-23.65205
 30
0.0
 11
-372.00521
 21
-24.85205
 31
0.0
  0
LINE
  8
ALL
 10
-382.00521
 20
-24.85205
 30
0.0
 11
-372.00521
 21
-24.85205
 31
0.0
  0
LINE
  8
ALL
 10
-378.50521
 20
-24.85205
 30
0.0
 11
-378.50521
 21
-26.05205
 31
0.0
  0
LINE
  8
ALL
 10
-380.30521
 20
-24.85205
 30
0.0
 11
-380.30521
 21
-26.05205
 31
0.0
  0
LINE
  8
ALL
 10
-381.50521
 20
-24.85205
 30
0.0
 11
-381.50521
 21
-26.05205
 31
0.0
  0
LINE
  8
ALL
 10
-381.50521
 20
-22.45205
 30
0.0
 11
-381.50521
 21
-23.65205
 31
0.0
  0
LINE
  8
ALL
 10
-380.30521
 20
-22.45205
 30
0.0
 11
-380.30521
 21
-23.65205
 31
0.0
  0
LINE
  8
ALL
 10
-378.50521
 20
-22.45205
 30
0.0
 11
-378.50521
 21
-23.65205
 31
0.0
  0
LINE
  8
ALL
 10
-370.00521
 20
-21.25205
 30
0.0
 11
-216.60521
 21
-21.25205
 31
0.0
  0
LINE
  8
ALL
 10
-382.00521
 20
-21.25205
 30
0.0
 11
-382.00521
 21
-22.45205
 31
0.0
  0
LINE
  8
ALL
 10
-380.30521
 20
-19.75205
 30
0.0
 11
-380.30521
 21
-21.25205
 31
0.0
  0
LINE
  8
ALL
 10
-378.50521
 20
-19.75205
 30
0.0
 11
-378.50521
 21
-21.25205
 31
0.0
  0
LINE
  8
ALL
 10
-381.50521
 20
-19.75205
 30
0.0
 11
-381.50521
 21
-21.25205
 31
0.0
  0
LINE
  8
ALL
 10
-379.00521
 20
-19.75205
 30
0.0
 11
-379.00521
 21
38.44795
 31
0.0
  0
LINE
  8
ALL
 10
-382.00521
 20
-22.45205
 30
0.0
 11
-372.00521
 21
-22.45205
 31
0.0
  0
LINE
  8
ALL
 10
-378.50521
 20
39.94795
 30
0.0
 11
-378.50521
 21
38.44795
 31
0.0
  0
LINE
  8
ALL
 10
-308.30521
 20
-19.75205
 30
0.0
 11
-382.00521
 21
-19.75205
 31
0.0
  0
LINE
  8
ALL
 10
-308.30521
 20
38.44795
 30
0.0
 11
-379.00521
 21
38.44795
 31
0.0
  0
LINE
  8
ALL
 10
-216.60521
 20
39.94795
 30
0.0
 11
-379.00521
 21
39.94795
 31
0.0
  0
LINE
  8
ALL
 10
-216.60521
 20
38.44795
 30
0.0
 11
-216.60521
 21
-19.75205
 31
0.0
  0
LINE
  8
ALL
 10
-216.60521
 20
-19.75205
 30
0.0
 11
-306.80521
 21
-19.75205
 31
0.0
  0
LINE
  8
ALL
 10
-306.80521
 20
38.44795
 30
0.0
 11
-306.80521
 21
-19.75205
 31
0.0
  0
LINE
  8
ALL
 10
-216.60521
 20
38.44795
 30
0.0
 11
-306.80521
 21
38.44795
 31
0.0
  0
LINE
  8
ALL
 10
-218.60521
 20
36.94795
 30
0.0
 11
-218.60521
 21
-18.25205
 31
0.0
  0
LINE
  8
ALL
 10
-304.80521
 20
36.94795
 30
0.0
 11
-304.80521
 21
-18.25205
 31
0.0
  0
LINE
  8
ALL
 10
-218.60521
 20
-18.25205
 30
0.0
 11
-304.80521
 21
-18.25205
 31
0.0
  0
LINE
  8
ALL
 10
-218.60521
 20
36.94795
 30
0.0
 11
-304.80521
 21
36.94795
 31
0.0
  0
LINE
  8
ALL
 10
-372.00521
 20
-21.25205
 30
0.0
 11
-372.00521
 21
-22.45205
 31
0.0
  0
LINE
  8
ALL
 10
-314.00521
 20
-9.65205
 30
0.0
 11
-314.00521
 21
-7.65205
 31
0.0
  0
LINE
  8
ALL
 10
-370.00521
 20
-7.65205
 30
0.0
 11
-370.00521
 21
-9.65205
 31
0.0
  0
LINE
  8
ALL
 10
-314.00521
 20
-9.65205
 30
0.0
 11
-370.00521
 21
-9.65205
 31
0.0
  0
LINE
  8
ALL
 10
-314.00521
 20
-7.65205
 30
0.0
 11
-370.00521
 21
-7.65205
 31
0.0
  0
LINE
  8
ALL
 10
-314.00521
 20
-14.15205
 30
0.0
 11
-314.00521
 21
-12.15205
 31
0.0
  0
LINE
  8
ALL
 10
-370.00521
 20
-12.15205
 30
0.0
 11
-370.00521
 21
-14.15205
 31
0.0
  0
LINE
  8
ALL
 10
-314.00521
 20
-14.15205
 30
0.0
 11
-370.00521
 21
-14.15205
 31
0.0
  0
LINE
  8
ALL
 10
-314.00521
 20
-12.15205
 30
0.0
 11
-370.00521
 21
-12.15205
 31
0.0
  0
LINE
  8
ALL
 10
-379.00521
 20
39.94795
 30
0.0
 11
-379.00521
 21
50.94795
 31
0.0
  0
LINE
  8
ALL
 10
-308.30521
 20
-19.75205
 30
0.0
 11
-308.30521
 21
38.44795
 31
0.0
  0
LINE
  8
ALL
 10
-377.00521
 20
-43.45205
 30
0.0
 11
-372.00521
 21
-43.45205
 31
0.0
  0
LINE
  8
ALL
 10
-133.60521
 20
-43.45205
 30
0.0
 11
-214.60521
 21
-43.45205
 31
0.0
  0
LINE
  8
ALL
 10
-216.60521
 20
-42.95205
 30
0.0
 11
-214.60521
 21
-42.95205
 31
0.0
  0
LINE
  8
ALL
 10
-377.00521
 20
52.94795
 30
0.0
 11
-216.60521
 21
52.94795
 31
0.0
  0
LINE
  8
ALL
 10
-380.80521
 20
51.74795
 30
0.0
 11
-380.80521
 21
-19.75205
 31
0.0
  0
LINE
  8
ALL
 10
-314.00521
 20
-3.15205
 30
0.0
 11
-370.00521
 21
-3.15205
 31
0.0
  0
LINE
  8
ALL
 10
-314.00521
 20
-5.15205
 30
0.0
 11
-370.00521
 21
-5.15205
 31
0.0
  0
LINE
  8
ALL
 10
-370.00521
 20
-3.15205
 30
0.0
 11
-370.00521
 21
-5.15205
 31
0.0
  0
LINE
  8
ALL
 10
-314.00521
 20
-5.15205
 30
0.0
 11
-314.00521
 21
-3.15205
 31
0.0
  0
LINE
  8
ALL
 10
-314.00521
 20
1.34795
 30
0.0
 11
-370.00521
 21
1.34795
 31
0.0
  0
LINE
  8
ALL
 10
-314.00521
 20
-0.65205
 30
0.0
 11
-370.00521
 21
-0.65205
 31
0.0
  0
LINE
  8
ALL
 10
-370.00521
 20
1.34795
 30
0.0
 11
-370.00521
 21
-0.65205
 31
0.0
  0
LINE
  8
ALL
 10
-314.00521
 20
-0.65205
 30
0.0
 11
-314.00521
 21
1.34795
 31
0.0
  0
LINE
  8
ALL
 10
-314.00521
 20
5.84795
 30
0.0
 11
-370.00521
 21
5.84795
 31
0.0
  0
LINE
  8
ALL
 10
-314.00521
 20
3.84795
 30
0.0
 11
-370.00521
 21
3.84795
 31
0.0
  0
LINE
  8
ALL
 10
-370.00521
 20
5.84795
 30
0.0
 11
-370.00521
 21
3.84795
 31
0.0
  0
LINE
  8
ALL
 10
-314.00521
 20
3.84795
 30
0.0
 11
-314.00521
 21
5.84795
 31
0.0
  0
LINE
  8
ALL
 10
-314.00521
 20
10.34795
 30
0.0
 11
-370.00521
 21
10.34795
 31
0.0
  0
LINE
  8
ALL
 10
-314.00521
 20
8.34795
 30
0.0
 11
-370.00521
 21
8.34795
 31
0.0
  0
LINE
  8
ALL
 10
-370.00521
 20
10.34795
 30
0.0
 11
-370.00521
 21
8.34795
 31
0.0
  0
LINE
  8
ALL
 10
-314.00521
 20
8.34795
 30
0.0
 11
-314.00521
 21
10.34795
 31
0.0
  0
LINE
  8
ALL
 10
-314.00521
 20
14.84795
 30
0.0
 11
-370.00521
 21
14.84795
 31
0.0
  0
LINE
  8
ALL
 10
-314.00521
 20
12.84795
 30
0.0
 11
-370.00521
 21
12.84795
 31
0.0
  0
LINE
  8
ALL
 10
-370.00521
 20
14.84795
 30
0.0
 11
-370.00521
 21
12.84795
 31
0.0
  0
LINE
  8
ALL
 10
-314.00521
 20
12.84795
 30
0.0
 11
-314.00521
 21
14.84795
 31
0.0
  0
LINE
  8
ALL
 10
-314.00521
 20
19.34795
 30
0.0
 11
-370.00521
 21
19.34795
 31
0.0
  0
LINE
  8
ALL
 10
-314.00521
 20
17.34795
 30
0.0
 11
-370.00521
 21
17.34795
 31
0.0
  0
LINE
  8
ALL
 10
-370.00521
 20
19.34795
 30
0.0
 11
-370.00521
 21
17.34795
 31
0.0
  0
LINE
  8
ALL
 10
-314.00521
 20
17.34795
 30
0.0
 11
-314.00521
 21
19.34795
 31
0.0
  0
LINE
  8
ALL
 10
-314.00521
 20
23.84795
 30
0.0
 11
-370.00521
 21
23.84795
 31
0.0
  0
LINE
  8
ALL
 10
-314.00521
 20
21.84795
 30
0.0
 11
-370.00521
 21
21.84795
 31
0.0
  0
LINE
  8
ALL
 10
-370.00521
 20
23.84795
 30
0.0
 11
-370.00521
 21
21.84795
 31
0.0
  0
LINE
  8
ALL
 10
-314.00521
 20
21.84795
 30
0.0
 11
-314.00521
 21
23.84795
 31
0.0
  0
LINE
  8
ALL
 10
-314.00521
 20
28.34795
 30
0.0
 11
-370.00521
 21
28.34795
 31
0.0
  0
LINE
  8
ALL
 10
-314.00521
 20
26.34795
 30
0.0
 11
-370.00521
 21
26.34795
 31
0.0
  0
LINE
  8
ALL
 10
-370.00521
 20
28.34795
 30
0.0
 11
-370.00521
 21
26.34795
 31
0.0
  0
LINE
  8
ALL
 10
-314.00521
 20
26.34795
 30
0.0
 11
-314.00521
 21
28.34795
 31
0.0
  0
LINE
  8
ALL
 10
-314.00521
 20
32.84795
 30
0.0
 11
-370.00521
 21
32.84795
 31
0.0
  0
LINE
  8
ALL
 10
-314.00521
 20
30.84795
 30
0.0
 11
-370.00521
 21
30.84795
 31
0.0
  0
LINE
  8
ALL
 10
-370.00521
 20
32.84795
 30
0.0
 11
-370.00521
 21
30.84795
 31
0.0
  0
LINE
  8
ALL
 10
-314.00521
 20
30.84795
 30
0.0
 11
-314.00521
 21
32.84795
 31
0.0
  0
LINE
  8
ALL
 10
-382.00521
 20
-21.25205
 30
0.0
 11
-372.00521
 21
-21.25205
 31
0.0
  0
LINE
  8
ALL
 10
-216.60521
 20
52.44795
 30
0.0
 11
-214.60521
 21
52.44795
 31
0.0
  0
LINE
  8
ALL
 10
-133.60521
 20
52.94795
 30
0.0
 11
-214.60521
 21
52.94795
 31
0.0
  0
LINE
  8
ALL
 10
-214.60521
 20
52.94795
 30
0.0
 11
-214.60521
 21
-43.45205
 31
0.0
  0
LINE
  8
ALL
 10
-216.60521
 20
52.94795
 30
0.0
 11
-216.60521
 21
39.94795
 31
0.0
  0
LINE
  8
ALL
 10
-216.60521
 20
-21.25205
 30
0.0
 11
-216.60521
 21
-43.45205
 31
0.0
  0
LINE
  8
ALL
 10
-221.60521
 20
33.94795
 30
0.0
 11
-221.60521
 21
-15.25205
 31
0.0
  0
LINE
  8
ALL
 10
-301.80521
 20
33.94795
 30
0.0
 11
-301.80521
 21
-15.25205
 31
0.0
  0
LINE
  8
ALL
 10
-221.60521
 20
-15.25205
 30
0.0
 11
-301.80521
 21
-15.25205
 31
0.0
  0
LINE
  8
ALL
 10
-221.60521
 20
33.94795
 30
0.0
 11
-301.80521
 21
33.94795
 31
0.0
  0
LINE
  8
ALL
 10
-383.30521
 20
-42.75205
 30
0.0
 11
-383.30521
 21
52.24795
 31
0.0
  0
LINE
  8
ALL
 10
-378.30521
 20
-47.75205
 30
0.0
 11
-132.30521
 21
-47.75205
 31
0.0
  0
LINE
  8
ALL
 10
-131.60521
 20
-41.45205
 30
0.0
 11
-131.60521
 21
50.94795
 31
0.0
  0
LINE
  8
ALL
 10
-378.30521
 20
57.24795
 30
0.0
 11
-132.30521
 21
57.24795
 31
0.0
  0
LINE
  8
ALL
 10
-127.30521
 20
-42.75205
 30
0.0
 11
-127.30521
 21
52.24795
 31
0.0
  0
ARC
  8
ALL
 10
-348.30521
 20
-30.75205
 30
0.0
 40
4.6
 50
206.962387
 51
333.037613
  0
LINE
  8
ALL
 10
-344.20521
 20
-28.66635
 30
0.0
 11
-344.20521
 21
-32.83775
 31
0.0
  0
LINE
  8
ALL
 10
-352.40521
 20
-28.66635
 30
0.0
 11
-352.40521
 21
-32.83775
 31
0.0
  0
ARC
  8
ALL
 10
-348.30521
 20
-30.75205
 30
0.0
 40
4.6
 50
26.962387
 51
153.037613
  0
ARC
  8
ALL
 10
-209.55521
 20
39.79795
 30
0.0
 40
1.8
 50
90.0
 51
180.0
  0
LINE
  8
ALL
 10
-209.55521
 20
41.59795
 30
0.0
 11
-140.65521
 21
41.59795
 31
0.0
  0
LINE
  8
ALL
 10
-211.35521
 20
39.79795
 30
0.0
 11
-211.35521
 21
-30.30205
 31
0.0
  0
ARC
  8
ALL
 10
-209.55521
 20
-30.30205
 30
0.0
 40
1.8
 50
180.0
 51
270.0
  0
LINE
  8
ALL
 10
-209.55521
 20
-32.10205
 30
0.0
 11
-140.65521
 21
-32.10205
 31
0.0
  0
LINE
  8
ALL
 10
-138.85521
 20
39.79795
 30
0.0
 11
-138.85521
 21
-30.30205
 31
0.0
  0
ARC
  8
ALL
 10
-140.65521
 20
39.79795
 30
0.0
 40
1.8
 50
0.0
 51
90.0
  0
ARC
  8
ALL
 10
-377.80521
 20
-42.25205
 30
0.0
 40
3.0
 50
180.0
 51
270.0
  0
ARC
  8
ALL
 10
-377.80521
 20
51.74795
 30
0.0
 40
3.0
 50
90.0
 51
180.0
  0
ARC
  8
ALL
 10
-132.80521
 20
51.74795
 30
0.0
 40
3.0
 50
0.0
 51
90.0
  0
ARC
  8
ALL
 10
-132.80521
 20
-42.25205
 30
0.0
 40
3.0
 50
270.0
 51
0.0
  0
LINE
  8
ALL
 10
-314.00521
 20
-16.65205
 30
0.0
 11
-370.00521
 21
-16.65205
 31
0.0
  0
LINE
  8
ALL
 10
-314.00521
 20
-18.65205
 30
0.0
 11
-370.00521
 21
-18.65205
 31
0.0
  0
LINE
  8
ALL
 10
-370.00521
 20
-16.65205
 30
0.0
 11
-370.00521
 21
-18.65205
 31
0.0
  0
LINE
  8
ALL
 10
-314.00521
 20
-18.65205
 30
0.0
 11
-314.00521
 21
-16.65205
 31
0.0
  0
LINE
  8
ALL
 10
-314.00521
 20
35.34795
 30
0.0
 11
-314.00521
 21
37.34795
 31
0.0
  0
LINE
  8
ALL
 10
-370.00521
 20
37.34795
 30
0.0
 11
-370.00521
 21
35.34795
 31
0.0
  0
LINE
  8
ALL
 10
-314.00521
 20
35.34795
 30
0.0
 11
-370.00521
 21
35.34795
 31
0.0
  0
LINE
  8
ALL
 10
-314.00521
 20
37.34795
 30
0.0
 11
-370.00521
 21
37.34795
 31
0.0
  0
LINE
  8
ALL
 10
-370.00521
 20
35.34795
 30
0.0
 11
-370.00521
 21
37.34795
 31
0.0
  0
LINE
  8
ALL
 10
-210.50521
 20
-33.45205
 30
0.0
 11
-139.70521
 21
-33.45205
 31
0.0
  0
LINE
  8
ALL
 10
-210.50521
 20
-39.45205
 30
0.0
 11
-139.70521
 21
-39.45205
 31
0.0
  0
LINE
  8
ALL
 10
-211.10521
 20
-34.05205
 30
0.0
 11
-211.10521
 21
-38.85205
 31
0.0
  0
LINE
  8
ALL
 10
-139.10521
 20
-34.05205
 30
0.0
 11
-139.10521
 21
-38.85205
 31
0.0
  0
ARC
  8
ALL
 10
-210.50521
 20
-34.05205
 30
0.0
 40
0.6
 50
90.0
 51
180.0
  0
ARC
  8
ALL
 10
-139.70521
 20
-34.05205
 30
0.0
 40
0.6
 50
0.0
 51
90.0
  0
ARC
  8
ALL
 10
-139.70521
 20
-38.85205
 30
0.0
 40
0.6
 50
270.0
 51
0.0
  0
ARC
  8
ALL
 10
-210.50521
 20
-38.85205
 30
0.0
 40
0.6
 50
180.0
 51
270.0
  0
LINE
  8
ALL
 10
-139.20521
 20
-34.05205
 30
0.0
 11
-139.20521
 21
-38.85205
 31
0.0
  0
ARC
  8
ALL
 10
-139.70521
 20
-34.05205
 30
0.0
 40
0.5
 50
0.0
 51
90.0
  0
ARC
  8
ALL
 10
-139.70521
 20
-38.85205
 30
0.0
 40
0.5
 50
270.0
 51
0.0
  0
ARC
  8
ALL
 10
-140.65521
 20
-30.30205
 30
0.0
 40
1.8
 50
270.0
 51
0.0
  0
POLYLINE
  8
ALL
 66
     1
 10
0.0
 20
0.0
 30
0.0
 70
     1
  0
VERTEX
  8
ALL
 10
9.63217
 20
-1.29893
 30
0.0
  0
VERTEX
  8
ALL
 10
12.99061
 20
-1.29893
 30
0.0
  0
VERTEX
  8
ALL
 10
11.31139
 20
8.57885
 30
0.0
  0
SEQEND
  8
0
  0
POLYLINE
  8
ALL
 66
     1
 10
0.0
 20
0.0
 30
0.0
 70
     1
  0
VERTEX
  8
ALL
 10
12.99061
 20
-70.54337
 30
0.0
  0
VERTEX
  8
ALL
 10
9.63217
 20
-70.54337
 30
0.0
  0
VERTEX
  8
ALL
 10
11.31139
 20
-80.42115
 30
0.0
  0
SEQEND
  8
0
  0
LINE
  8
ALL
 10
11.31139
 20
8.57885
 30
0.0
 11
11.31139
 21
-80.42115
 31
0.0
  0
POLYLINE
  8
ALL
 66
     1
 10
0.0
 20
0.0
 30
0.0
 70
     1
  0
VERTEX
  8
ALL
 10
-15.36783
 20
46.70107
 30
0.0
  0
VERTEX
  8
ALL
 10
-12.00939
 20
46.70107
 30
0.0
  0
VERTEX
  8
ALL
 10
-13.68861
 20
56.57885
 30
0.0
  0
SEQEND
  8
0
  0
POLYLINE
  8
ALL
 66
     1
 10
0.0
 20
0.0
 30
0.0
 70
     1
  0
VERTEX
  8
ALL
 10
-12.00939
 20
-70.54337
 30
0.0
  0
VERTEX
  8
ALL
 10
-15.36783
 20
-70.54337
 30
0.0
  0
VERTEX
  8
ALL
 10
-13.68861
 20
-80.42115
 30
0.0
  0
SEQEND
  8
0
  0
LINE
  8
ALL
 10
-13.68861
 20
56.57885
 30
0.0
 11
-13.68861
 21
-80.42115
 31
0.0
  0
POLYLINE
  8
ALL
 66
     1
 10
0.0
 20
0.0
 30
0.0
 70
     1
  0
VERTEX
  8
ALL
 10
377.63217
 20
43.70107
 30
0.0
  0
VERTEX
  8
ALL
 10
380.99061
 20
43.70107
 30
0.0
  0
VERTEX
  8
ALL
 10
379.31139
 20
53.57885
 30
0.0
  0
SEQEND
  8
0
  0
POLYLINE
  8
ALL
 66
     1
 10
0.0
 20
0.0
 30
0.0
 70
     1
  0
VERTEX
  8
ALL
 10
380.99061
 20
-35.54337
 30
0.0
  0
VERTEX
  8
ALL
 10
377.63217
 20
-35.54337
 30
0.0
  0
VERTEX
  8
ALL
 10
379.31139
 20
-45.42115
 30
0.0
  0
SEQEND
  8
0
  0
LINE
  8
ALL
 10
379.31139
 20
53.57885
 30
0.0
 11
379.31139
 21
-45.42115
 31
0.0
  0
POLYLINE
  8
ALL
 66
     1
 10
0.0
 20
0.0
 30
0.0
 70
     1
  0
VERTEX
  8
ALL
 10
179.43361
 20
78.68547
 30
0.0
  0
VERTEX
  8
ALL
 10
179.43361
 20
75.32703
 30
0.0
  0
VERTEX
  8
ALL
 10
189.31139
 20
77.00625
 30
0.0
  0
SEQEND
  8
0
  0
POLYLINE
  8
ALL
 66
     1
 10
0.0
 20
0.0
 30
0.0
 70
     1
  0
VERTEX
  8
ALL
 10
51.68917
 20
75.32703
 30
0.0
  0
VERTEX
  8
ALL
 10
51.68917
 20
78.68547
 30
0.0
  0
VERTEX
  8
ALL
 10
41.81139
 20
77.00625
 30
0.0
  0
SEQEND
  8
0
  0
LINE
  8
ALL
 10
189.31139
 20
77.00625
 30
0.0
 11
41.81139
 21
77.00625
 31
0.0
  0
POLYLINE
  8
ALL
 66
     1
 10
0.0
 20
0.0
 30
0.0
 70
     1
  0
VERTEX
  8
ALL
 10
37.68917
 20
101.32703
 30
0.0
  0
VERTEX
  8
ALL
 10
37.68917
 20
104.68547
 30
0.0
  0
VERTEX
  8
ALL
 10
27.81139
 20
103.00625
 30
0.0
  0
SEQEND
  8
0
  0
POLYLINE
  8
ALL
 66
     1
 10
0.0
 20
0.0
 30
0.0
 70
     1
  0
VERTEX
  8
ALL
 10
317.43361
 20
104.68547
 30
0.0
  0
VERTEX
  8
ALL
 10
317.43361
 20
101.32703
 30
0.0
  0
VERTEX
  8
ALL
 10
327.31139
 20
103.00625
 30
0.0
  0
SEQEND
  8
0
  0
LINE
  8
ALL
 10
27.81139
 20
103.00625
 30
0.0
 11
327.31139
 21
103.00625
 31
0.0
  0
POLYLINE
  8
ALL
 66
     1
 10
0.0
 20
0.0
 30
0.0
 70
     1
  0
VERTEX
  8
ALL
 10
-86.36783
 20
47.37017
 30
0.0
  0
VERTEX
  8
ALL
 10
-83.00939
 20
47.37017
 30
0.0
  0
VERTEX
  8
ALL
 10
-84.68861
 20
57.24795
 30
0.0
  0
SEQEND
  8
0
  0
POLYLINE
  8
ALL
 66
     1
 10
0.0
 20
0.0
 30
0.0
 70
     1
  0
VERTEX
  8
ALL
 10
-83.00939
 20
-37.87427
 30
0.0
  0
VERTEX
  8
ALL
 10
-86.36783
 20
-37.87427
 30
0.0
  0
VERTEX
  8
ALL
 10
-84.68861
 20
-47.75205
 30
0.0
  0
SEQEND
  8
0
  0
LINE
  8
ALL
 10
-84.68861
 20
57.24795
 30
0.0
 11
-84.68861
 21
-47.75205
 31
0.0
  0
POLYLINE
  8
ALL
 66
     1
 10
0.0
 20
0.0
 30
0.0
 70
     1
  0
VERTEX
  8
ALL
 10
-373.42743
 20
75.32703
 30
0.0
  0
VERTEX
  8
ALL
 10
-373.42743
 20
78.68547
 30
0.0
  0
VERTEX
  8
ALL
 10
-383.30521
 20
77.00625
 30
0.0
  0
SEQEND
  8
0
  0
POLYLINE
  8
ALL
 66
     1
 10
0.0
 20
0.0
 30
0.0
 70
     1
  0
VERTEX
  8
ALL
 10
-137.18299
 20
78.68547
 30
0.0
  0
VERTEX
  8
ALL
 10
-137.18299
 20
75.32703
 30
0.0
  0
VERTEX
  8
ALL
 10
-127.30521
 20
77.00625
 30
0.0
  0
SEQEND
  8
0
  0
LINE
  8
ALL
 10
-383.30521
 20
77.00625
 30
0.0
 11
-127.30521
 21
77.00625
 31
0.0
  0
TEXT
  8
ALL
 10
-279.43861
 20
98.88885
 30
0.0
 40
15.413064
  1
303  11.9"
 41
0.650026
  0
TEXT
  8
ALL
 10
-279.43861
 20
73.88885
 30
0.0
 40
15.413064
  1
256  10.1"
 41
0.650026
  0
TEXT
  8
ALL
 10
-57.57129
 20
-10.57436
 30
0.0
 40
15.413064
  1
105  4.1"
 50
90.0
 41
0.630698
  0
TEXT
  8
ALL
 10
-339.55531
 20
-125.69995
 30
0.0
 40
15.413064
  1
(95  3.7")
 41
0.595094
  0
TEXT
  8
ALL
 10
-241.67191
 20
-125.69995
 30
0.0
 40
15.413064
  1
(95  3.7")
 41
0.595094
  0
TEXT
  8
ALL
 10
188.44479
 20
-125.69995
 30
0.0
 40
15.413064
  1
(89  3.5")
 41
0.595094
  0
LINE
  8
ALL
 10
-31.68861
 20
-117.99375
 30
0.0
 11
-90.52191
 21
-117.99375
 31
0.0
  0
POLYLINE
  8
ALL
 66
     1
 10
0.0
 20
0.0
 30
0.0
 70
     1
  0
VERTEX
  8
ALL
 10
-148.84798
 20
-89.18622
 30
0.0
  0
VERTEX
  8
ALL
 10
-147.51641
 20
-86.63405
 30
0.0
  0
VERTEX
  8
ALL
 10
-155.68861
 20
-83.99375
 30
0.0
  0
SEQEND
  8
0
  0
LINE
  8
ALL
 10
-90.52191
 20
-117.99375
 30
0.0
 11
-155.68861
 21
-83.99375
 31
0.0
  0
TEXT
  8
ALL
 10
-90.61641
 20
-117.69995
 30
0.0
 40
15.413064
  1
6 - ¿7.5
 41
0.606538
  0
TEXT
  8
ALL
 10
152.90169
 20
98.88885
 30
0.0
 40
15.413064
  1
300  11.8"
 41
0.650026
  0
TEXT
  8
ALL
 10
78.72759
 20
74.17365
 30
0.0
 40
15.413064
  1
147.5  5.8"
 41
0.615901
  0
TEXT
  8
ALL
 10
-11.37869
 20
-26.61486
 30
0.0
 40
15.413064
  1
137  5.4"
 50
90.0
 41
0.630698
  0
TEXT
  8
ALL
 10
15.20961
 20
-45.5009
 30
0.0
 40
15.413064
  1
89  3.5"
 50
90.0
 41
0.606538
  0
TEXT
  8
ALL
 10
406.80521
 20
-12.0168
 30
0.0
 40
15.413064
  1
99  3.9"
 50
90.0
 41
0.606538
  0
LINE
  8
ALL
 10
-350.30521
 20
-101.70455
 30
0.0
 11
-350.30521
 21
-69.99375
 31
0.0
  0
LINE
  8
ALL
 10
-255.30521
 20
-101.70455
 30
0.0
 11
-255.30521
 21
-69.99375
 31
0.0
  0
LINE
  8
ALL
 10
-160.30521
 20
-101.70455
 30
0.0
 11
-160.30521
 21
-69.99375
 31
0.0
  0
LINE
  8
ALL
 10
175.81139
 20
-78.42115
 30
0.0
 11
175.81139
 21
-101.99375
 31
0.0
  0
LINE
  8
ALL
 10
264.81139
 20
-78.42115
 30
0.0
 11
264.81139
 21
-101.99375
 31
0.0
  0
POLYLINE
  8
ALL
 66
     1
 10
0.0
 20
0.0
 30
0.0
 70
     1
  0
VERTEX
  8
ALL
 10
-340.42743
 20
-97.38377
 30
0.0
  0
VERTEX
  8
ALL
 10
-340.42743
 20
-94.02533
 30
0.0
  0
VERTEX
  8
ALL
 10
-350.30521
 20
-95.70455
 30
0.0
  0
SEQEND
  8
0
  0
POLYLINE
  8
ALL
 66
     1
 10
0.0
 20
0.0
 30
0.0
 70
     1
  0
VERTEX
  8
ALL
 10
-265.18299
 20
-94.02533
 30
0.0
  0
VERTEX
  8
ALL
 10
-265.18299
 20
-97.38377
 30
0.0
  0
VERTEX
  8
ALL
 10
-255.30521
 20
-95.70455
 30
0.0
  0
SEQEND
  8
0
  0
LINE
  8
ALL
 10
-350.30521
 20
-95.70455
 30
0.0
 11
-255.30521
 21
-95.70455
 31
0.0
  0
POLYLINE
  8
ALL
 66
     1
 10
0.0
 20
0.0
 30
0.0
 70
     1
  0
VERTEX
  8
ALL
 10
-245.42743
 20
-97.38377
 30
0.0
  0
VERTEX
  8
ALL
 10
-245.42743
 20
-94.02533
 30
0.0
  0
VERTEX
  8
ALL
 10
-255.30521
 20
-95.70455
 30
0.0
  0
SEQEND
  8
0
  0
POLYLINE
  8
ALL
 66
     1
 10
0.0
 20
0.0
 30
0.0
 70
     1
  0
VERTEX
  8
ALL
 10
-170.18299
 20
-94.02533
 30
0.0
  0
VERTEX
  8
ALL
 10
-170.18299
 20
-97.38377
 30
0.0
  0
VERTEX
  8
ALL
 10
-160.30521
 20
-95.70455
 30
0.0
  0
SEQEND
  8
0
  0
LINE
  8
ALL
 10
-255.30521
 20
-95.70455
 30
0.0
 11
-160.30521
 21
-95.70455
 31
0.0
  0
POLYLINE
  8
ALL
 66
     1
 10
0.0
 20
0.0
 30
0.0
 70
     1
  0
VERTEX
  8
ALL
 10
185.68917
 20
-97.38377
 30
0.0
  0
VERTEX
  8
ALL
 10
185.68917
 20
-94.02533
 30
0.0
  0
VERTEX
  8
ALL
 10
175.81139
 20
-95.70455
 30
0.0
  0
SEQEND
  8
0
  0
POLYLINE
  8
ALL
 66
     1
 10
0.0
 20
0.0
 30
0.0
 70
     1
  0
VERTEX
  8
ALL
 10
254.93361
 20
-94.02533
 30
0.0
  0
VERTEX
  8
ALL
 10
254.93361
 20
-97.38377
 30
0.0
  0
VERTEX
  8
ALL
 10
264.81139
 20
-95.70455
 30
0.0
  0
SEQEND
  8
0
  0
LINE
  8
ALL
 10
175.81139
 20
-95.70455
 30
0.0
 11
264.81139
 21
-95.70455
 31
0.0
  0
LINE
  8
ALL
 10
-406.80521
 20
38.81525
 30
0.0
 11
-406.80521
 21
107.00625
 31
0.0
  0
ENDSEC
  0
EOF
